Guitar Tabs for Slam - Gerimis Mengundang

(/) Slide Up  (\) Slide Down  (h) Hammer On  (p) Pull Off  (b) Bend (r) Release (v) Vibrato (x) Muted

Tabs for Song : 

Song lyrics here
E|-----------------------------------------------------------------------------------
B|--12-12-12-11----------------------------11-12-11----------------------------------
G|--------------13-11-11\13----11h13-9--------------11-9--8-----------------8--9-----
D|--------------------------------------------------------------9--9--9--11----------
A|-----------------------------------------------------------------------------------
E|-----------------------------------------------------------------------------------

E|--------------------------------------------------------------------
B|-----9--11\12-11----9-----------------------------------------------
G|--11-------------------11-----8h9--8--------------------8-----9--8--
D|--------------------------------------11-9--8-----9--11----11-------
A|--------------------------------------------------------------------
E|--------------------------------------------------------------------


Song lyrics here
E|-----11-9--------------------------------------------------------
B|--11-------12-11----11h12-11-------------------------------------
G|--11-------------------------13----11\13-11----9--8------8\-9/8--
D|--11-------------------------------------------------------------
A|-----------------------------------------------------------------
E|-----------------------------------------------------------------

E|--------------------------------------------------------------
B|--------------9-----12/11-9--7--5------5\7--4-----5--4-----4--
G|-----8--9--11-------------------------------------------6-----
D|--11----------------------------------------------------------
A|--------------------------------------------------------------
E|--------------------------------------------------------------
Song lyrics here

E|-----11-9--------------------------------------------------------
B|--11-------12-11----11h12-11-------------------------------------
G|--11-------------------------13----11\13-11----9--8------8\-9/8--
D|--11-------------------------------------------------------------
A|-----------------------------------------------------------------
E|-----------------------------------------------------------------

E|--------------------------------------------------------------------------------------------
B|--------------9-----12-11-9--------------------------------------------------9--12-11-12----
G|-----8--9--11-------------------11/9--9-----8--9--8--------------8--9--11-------------------
D|--11-------------------------------------------------11-9--11-------------------------------
A|--------------------------------------------------------------------------------------------
E|--------------------------------------------------------------------------------------------

E|--
B|--
G|--
D|--
A|--
E|--

Paste any tab in acousterr's tab maker and we'll play it !!!
Now supports capo and sound effects for vibrato/pull-off/hammer/bends/mutes etc !!! Checkout help section
tabs and chords, guitar tabs, music transcription, music technology, deep learning, music information retrieval, transcribe into tabs & chords, chordify, music renditions, songsterr, reverbnation, tabulature, bollywood chords, ultimate guitar, yousician, guitar lessons, acoustic guitar, electric guitar, guitar tuner, 911 tabs