Guitar Tabs for Skyrim - Title Song

(/) Slide Up  (\) Slide Down  (h) Hammer On  (p) Pull Off  (b) Bend (r) Release (v) Vibrato (x) Muted

Tabs for Song : 

Song lyrics here
E|-----------------0--2-----2--5--0------2h0-----------------------------0--2-----2--5--7-----7--5--9--7-----
B|-----2--3-----3-----------------------------3--2-----------2--3-----3--------------------------------------
G|--4-----------------------------------------------4-----4-----------------------------0--------------------
D|--------------------0-----------------------------------------------------0--------------------------------
A|--------2-----------------------0-----------------------------2--------------------------------------------
E|--------------------------------------------------3--------------------------------------------------0-----

E|--7--9--10-9--7--5--3--2--0-----0-----2--0--------------------------------------------------------------------------
B|-----------------------------------3-----------3--2-----------------------------------------------------------------
G|-----------------------------------------------------4-----4-----4-----2--2-----2-----4--4--4--4--4--4--4--4--4--4--
D|-----------------0--------------------------------------------------------------------------------------------------
A|-----------------------------------------0--------------------------------------------2-----------------0-----------
E|--------7-----------------3--------------------------0-----------------2-----------------------3-----------------0--

E|-----------------------------------------------------------------------------------------0--2--0--
B|------2h-3p2------------------------------------2h-3p2--3--3--3--3--3--3--3--3--3--3--3-----------
G|--4-----------4--4--4--4--4--4--4--4--4--4--4-----------------------------------------------------
D|--------------------------------------------------------------------------------------------------
A|--------------2-----------------0-----------------------2-----------------0-----------------------
E|-----------------------3-----------------0-----------------------3-----------------0--------------

E|--------------------------------------------------------------------------------------------------------
B|--3--3--3--3--3--3--3--3--3--3---3p2--3---3p2--3--2--3--5--3--2---------------------------------3p2--3--
G|-----------------------------------------------------------------4--4--2--4--2--4--6--7--2--4-----------
D|--------------------------------------------------------------------------------------------------------
A|--2-----------------0-----------------2-----------------0-----------------------------------2--------2--
E|-----------3-----------------0-----------------3-----------------0--------0--------0--------------------

E|-----------------------------------------------------------------10p9--10-10-9--10-9--10-12-10-9--7--
B|---3p2--3--2--3--5--3--2-----------------------------------------------------------------------------
G|--------------------------4--4--2--4--4--2--4--2--4--6--7--2--4-----------------0--------------------
D|-----------------------------------------------------------------------------------------------------
A|-----------------------------------------------------0--------2--------------------------0-----------
E|--------3--------0--------0--------3--------0--------------------------7--------------------------0--

E|-----7--5--7-----7--5--7-----5--7--9--10-5--7--10p9--10-10-9--10----9--10-12-10-9--7--7--5--7-----7--5--7--
B|-----------------------------------------------------------------------------------------------------------
G|-----------0--------------------------------------------------0-----------------------------0--------------
D|-----------------------------------------------------------------------------------------------------------
A|-----------------------------------0--------------------------------------0--------------------------------
E|-----------------------0--------------------7--------7-----------------------------0--------------------0--

E|-----5--7--9--10----5--7--------------------------0--2-----2-----2--5--0-----0-----------------------------------
B|--------------------------------2--3-----3-----3--------3-----3-----------2-----2--3--2-----------------2--3-----
G|-----------------------------4--------4-----4--------------------------------------------4-----4-----4--------4--
D|-----------------------------------------------------0--------------------------------------0-----0--------------
A|-----------0-----------------------2-----------------------------------0-----------------------------------2-----
E|-----------------------7-----------------------------------------------------------------3-----------------------

E|-----------0--2-----2-----2--5--7-----------5--9--7-----7--9--10----9-----7-----5-----3-----2-----0-----------
B|--3-----3--------3-----3-----------0-----0-----------------------0-----0-----0-----3-----3-----0-----0--3-----
G|-----4--------------------------0-----0--------------------------------------------------------------------0--
D|--------------0-----------------------------------------------------------------0-----------------------------
A|--------------------------------------------------------------------------------------------------------------
E|--------------------------------------------------0-----------7-----------------------------------3-----------

E|--2-----0--------------------------------------------------------------------0--2-----2-----2--5--0-----0-----------
B|-----0--------3-----2--------------------------------------2--3-----3-----3--------3-----3-----------2-----2--3--2--
G|-----------2-----2-----2--4-----4-----4-----2-----2-----4--------4-----4--------------------------------------------
D|-----------------------------5-----5-----5-----4-----4--------------------------0-----------------------------------
A|--------0-----------------------------------------------------2-----------------------------------0-----------------
E|--------------------------0-----------------2-----------------------------------------------------------------------

E|-----------------------------0--2-----2-----2--5--7-----------5--9--7-----------7--9--10----9-----7-----5-----3--
B|-----------------2--3-----3--------3-----3-----------0-----0-----------0-----0-----------0-----0-----0-----3-----
G|--4-----4-----4--------4--------------------------0-----0-----------------0--------------------------------------
D|-----0-----0--------------------0-----------------------------------------------------------------------0--------
A|--------------------2--------------------------------------------------------------------------------------------
E|--3-----------------------------------------------------------------0-----------------7--------------------------

E|-----2-----0-----2-----2-----------------------------------------------------------------------------------------
B|--3-----0-----------0--------3-----2---------------------------3p2--3--------3---3p2--3-----------2--3--5-----3--
G|--------------0-----------2-----2-----2--4-----4-----4-----2--------------4--------------------4-----------2-----
D|--------------------------------------------5-----5-----5--------------4--------------------5--------------------
A|-----------------------0--------------------------------------------2--------------------5--------------0--------
E|-----------3-----------------------------0-----------------2--------------------------3--------------------------

E|--------------------------------------------------------------------------------------------------------------------
B|-----2-----------------------------------------2-----3--------------------3---3p2--3--------3---3p2--3-----------2--
G|--2-----2--4--------4--4--2--4--------4--2--4--------------2-----4-----4-----------------4--------------------4-----
D|-----------------2-----------------2--------------2-----2-----2-----4-----------------4--------------------5--------
A|--------------2-----------------2--------------0-----------------2-----------------2--------------------5-----------
E|-----------0-----------------0-----------------------------------------------------------------------3--------------

E|-----------------------------------------------------------------------------------------------------------
B|--3--5-----3-----2-----------------------------------------------------------2-----3--------------------2--
G|--------2-----2-----2--4--------4--4--2--4--------4--4--2--4--------4--2--4--------------2-----4-----4-----
D|-----------------------------2-----------------5-----------------2--------------2-----2-----2-----4--------
A|--------------------------2-----------------5-----------------2--------------0-----------------2-----------
E|-----0-----------------0-----------------3-----------------0-----------------------------------------------

E|--10p9--10----10----10-9--10----10----9--10-12----10----9--7-----------7--5--7-----7-----7--5--7-----------5--7--9--
B|-----------0-----0-----------0-----0-----------10----10-------0-----0-----------0-----0-----------0-----0-----------
G|--------------------------0--------------------------------------0-----------0-----------------------0--------------
D|--------------------------------------------------------------------------------------------------------------------
A|--------------------------------------------0--------------------------------------------------------------------0--
E|--------7--------------------------------------------------0-----------------------------------0--------------------

E|-----10----5-----7-----------10p9--10----10----10-9--10----10----9--10-12----10----9-----7-----------7--5--7-----7--
B|--------------5-----7-----------------0-----0-----------0-----0-----------10----10----10----0-----0-----------0-----
G|--9-----9--------------7-----------------------------0-----------------------------------------0-----------0--------
D|--------------------------9-----------------------------------------------------------------------------------------
A|-----------------------------------------------------------------------0--------------------------------------------
E|-----------------7-----------------7-----------------------------------------------------0--------------------------

E|-----7--5--7-----------5--7--9-----10----5-----7--------
B|--0-----------0-----0-----------------------5-----------
G|-----------------0--------------9-----9-----------------
D|--------------------------------------------------------
A|-----------------------------0--------------------------
E|-----------0-----------------------------------7--------

Song lyrics here
E|--
B|--
G|--
D|--
A|--
E|--

Paste any tab in acousterr's tab maker and we'll play it !!!
Now supports capo and sound effects for vibrato/pull-off/hammer/bends/mutes etc !!! Checkout help section
tabs and chords, guitar tabs, music transcription, music technology, deep learning, music information retrieval, transcribe into tabs & chords, chordify, music renditions, songsterr, reverbnation, tabulature, bollywood chords, ultimate guitar, yousician, guitar lessons, acoustic guitar, electric guitar, guitar tuner, 911 tabs