Guitar Tabs for Six Speed

(/) Slide Up  (\) Slide Down  (h) Hammer On  (p) Pull Off  (b) Bend (r) Release (v) Vibrato (x) Muted

Tabs for Song : 
BPM : 400

Verse/Prechorus 
E|-----------------------------------------------------------------------------------------------------------------------------------------------------------------------------------------------------------------------------------------------------------------------------------------------------------------------------------------------------------------------
B|-----------------------------------------------------------------------------------------------------------------------------------------------------------------------------------------------------------------------------------------------------------------------------------------------------------------------------------------------------------------------
G|-----------------------------------------------------------------------------------------------------------------------------------------------------------------------------------------------------------------------------------------------------------------------------------------------------------------------------------------------------------------------
D|-----------------------------------------------------------------------------------------------------------------------------------------------------------------------------------------------------------------------------------------------------------------------------------------------------------------------------------------------------------------------
A|-----------9-----------------------7-----------------------5--------5-----------------5--------------------9-----------------------7-----------------------5--------5--------------------------------------------------------------------------------------------------------------------------------------------------------------------------------------------------
E|--7-----------------7-----5-----------------5-----3-----------------------------3-----------3-----7-----------------7-----5-----------------5-----3-----------------------------3-----3-----------2--------2--------2-----------------14----------3--------3--------3-----------------15----------2--------2--------2-----------------14----------3--------3--------3--

Chorus 
E|--------------------------------------------------------------------------------------------------------------------------------------------------------------------------------------------------
B|--------------------------------------------------------------------------------------------------------------------------------------------------------------------------------------------------
G|--------------------------------------------------------------------------------------------------------------------------------------------------------------------------------------------------
D|--------------------------------------------------------------------------------------------------------------------------------------------------------------------------------------------------
A|--5--------5--------5-----------5-----5-----5-----9--------9--------9-----------9-----9-----9-----2--------2--------2-----------2-----2-----2-----------------------------------------------------
E|--------------------------------------------------------------------------------------------------------------------------------------------------3--------3--------3-----------3-----3-----3-----

Bridge
E|--------------------------------------------------------------------------------------------------------------------------------------------------------------------------------------------------------------------------
B|--------------------------------------------------------------------------------------------------------------------------------------------------------------------------------------------------------------------------
G|--------------------------------------------------------------------------------------------------------------------------------------------------------------------------------------------------------------------------
D|--------------------------------------------------------------------------------------------------------------------------------------------------------------------------------------------------------------------------
A|--------------------------------------------------------------------------------------------------------------------------------------------------------------------------------------------------------------------------
E|--7-----------------------5--------5--------------------------3-----------------------3--------3--------------------------7-----------------------5--------5--------------------------3-----------------------3--------3--

Use manual mode to free up cursor. Paste any tab in acousterr tab maker and we'll play it !!!
tabs and chords, guitar tabs, music transcription, music technology, deep learning, music information retrieval, transcribe into tabs & chords, chordify, music renditions, songsterr, reverbnation, tabulature, bollywood chords, ultimate guitar, yousician, guitar lessons, acoustic guitar, electric guitar, guitar tuner, 911 tabs