Guitar Tabs for Siti Badriah - Lagi Syantik

(/) Slide Up  (\) Slide Down  (h) Hammer On  (p) Pull Off  (b) Bend (r) Release (v) Vibrato (x) Muted

Tabs for Song : 

Song lyrics here
E|--------------12-11----------------------12-11----11-12----------12-12-14-------
B|--14-------14-------14-12-14-------------------14-------14----------------12----
G|-----13----------------------13-------13-------------------------------------11-
D|--------11----------------------14-------------------------14-------------------
A|--------------------------------------------------------------------------------
E|--------------------------------------------------------------------------------

E|--16-14-16-14-12----------12-11----------------------12-11----11-12-------12-14-14-
B|-----------------14-------------14-12-14-------------------14-------14-------------
G|-----------------------------------------13-------13-------------------------------
D|-----------------------11-------------------14-------------------------14----------
A|-----------------------------------------------------------------------------------
E|-----------------------------------------------------------------------------------

Song lyrics here
E|--
B|--
G|--
D|--
A|--
E|--

Paste any tab in acousterr's tab maker and we'll play it !!!
Now supports capo and sound effects for vibrato/pull-off/hammer/bends/mutes etc !!! Checkout help section
tabs and chords, guitar tabs, music transcription, music technology, deep learning, music information retrieval, transcribe into tabs & chords, chordify, music renditions, songsterr, reverbnation, tabulature, bollywood chords, ultimate guitar, yousician, guitar lessons, acoustic guitar, electric guitar, guitar tuner, 911 tabs