Guitar Tabs for Sink The Lighthouse - Alex Vargas Tabs

(/) Slide Up  (\) Slide Down  (h) Hammer On  (p) Pull Off  (b) Bend (r) Release (v) Vibrato (x) Muted

Tabs for Song : Sink the Lighthouse feat. Alex Vargas
E|-----------------------------------------------
B|--------5--------5--------5--------5--------5--
G|-----4--------4--------4--------4--------4-----
D|-----------2--------2--------2--------2--------
A|-----------------------------------------------
E|--0--------------------------------------------

E|-----------------------------------------------
B|--------5--------5--------5--------5--------5--
G|-----4--------4--------4--------4--------4-----
D|-----------2--------2--------2--------2--------
A|-----------------------------------------------
E|--2--------------------------------------------

E|-----------------------------------------------
B|--------5--------5--------5--------5--------5--
G|-----4--------4--------4--------4--------4-----
D|-----------2--------2--------2--------2--------
A|-----------------------------------------------
E|--3--------------------------------------------

E|-----------------------------------------------
B|--------5--------5--------5--------5--------5--
G|-----4--------4--------4--------4--------4-----
D|-----------2--------2--------2--------2--------
A|--0--------------------------------------------
E|-----------------------------------------------

E|-----------------------------------------------
B|--------5--------5--------5--------5--------5--
G|-----4--------4--------4--------4--------4-----
D|-----------2--------2--------2--------2--------
A|--3--------------------------------------------
E|-----------------------------------------------

E|-----------------------------------------------
B|--------5--------5--------5--------5--------5--
G|-----4--------4--------4--------4--------4-----
D|-----------2--------2--------2--------2--------
A|--0--------------------------------------------
E|-----------------------------------------------

E|-----------------------------------------------
B|--------5--------5--------5--------5--------5--
G|-----4--------4--------4--------4--------4-----
D|-----------2--------2--------2--------2--------
A|-----------------------------------------------
E|--3--------------------------------------------

	
tabs and chords, guitar tabs, music transcription, music technology, deep learning, music information retrieval, transcribe into tabs & chords, chordify, music renditions, songsterr, reverbnation, tabulature, bollywood chords, ultimate guitar, yousician, guitar lessons, acoustic guitar, electric guitar, guitar tuner, 911 tabs