Guitar Tabs for Sing For You Exo

(/) Slide Up  (\) Slide Down  (h) Hammer On  (p) Pull Off  (b) Bend (r) Release (v) Vibrato

Tabs for Song : Sing for you

Intro
    CM7               EM9                  CM7               EM9
E|-----------------------------------2-----------------0--------------2-----
B|--0-----------0-----------3--------------0-----------------------------3----
G|--------0-----------------0--------------------0-----------------0---------
D|-----2-----2-----------4-----4--------------2-----2-----------4---------------
A|--3--------------------------------------3--------------------------------
E|--------------------0--------------------------------------0--------------

    CM7                  BM11               CM7
E|-----------------0--------------0-----------------------0--
B|--0--------------------3-----------3-----0------------------
G|--------0-----0--------------2-----------------0-----0-------
D|-----2-----2--------------0-----------------2-----2----------
A|--3--------------------2-----------------3-----------------
E|-----------------------------------------------------------

                                                     |-------------------
       EM9              F#M    FM    CM7                Esus4         E
E|--------------2-----------------------------------0-----------0--------------
B|-----------------3-----------------0----------------------------------------
G|-----------0-----------2-----1-----------0-----0--------2------------1------------
D|--------4--------------2-----1--------2-----2--------------2-----2---------------
A|-----------------------------------3---------------------------------------
E|-----0-----------------2-----1--------------------------0----------------------

--------------------------------------|
Different CM7   D7sus4  Gsus4           
E|--------2--------3---------------------r
B|--0--------0-----1-----1--------1--0---e
G|-----0-----------2-----------0-----0---p
D|-----------------0--------0--------0---e
A|--3------------------------------------a
E|-----------------------3-----------3---t


      Esus4           E        CM7          D7sus4          Gsus4
E|-----5--------5-----4--------------2--------3--------3---------------------------
B|-----------5--------5--------0--------0-----------1--------1--------1--0-----------
G|--------4-----------4-----------0--------------2-----------------0-----0----------
D|--------------------------------------------0-----------------0--------0------
A|-----------------------------3---------------------------------------------
E|-----0--------------0--------------------------------------3-----------3-------

The way... 
2x CM7            Dsus4  D     Bm11      Diff. EM9
E|--0--------0-----3-----2---------------------------------
B|-----------------3-----3-----3--------3--------------3----
G|--------0--------2-----2-----------2--------------0-------
D|-----2-----------0--------------0--------------4---------
A|--3--------------------------2--------------------------
E|--------------------------------------------0-----------

                                                  Gobaek....
   CM7            Dsus4  D   Esus4            E       Am9  Am7   D(9,15) D(9)
E|--0--------0-----3-----2--------------0--------------7------5----7-----5-------
B|-----------------3-----3-----------------------------5------5----5-----5-------
G|--------0--------2-----2-----------2--------1--------5------5----5-----5-------
D|-----2-----------0--------------2-----------2--------------------------------
A|--3--------------------------------------------------------------5-----5-----
E|-----------------------------0--------------0--------5------5----------------


I'll sing for you...
CM7 and G D D UUD DDU  CM7  D DD    Dsus4  Gsus4
E|-----------------------------------3------------------------
B|-----------------------------------3-----1--------1--0---------
G|-----------------------------------2-----------0-----0--------
D|-----------------------------------0--------0--------0--------
A|-----------------------------------------------------------
E|-----------------------------------------3-----------3-------
tabs and chords, guitar tabs, music contests, music covers, songsterr, reverbnation, renditions, tabulature, bollywood chords, ultimate guitar, yousician, guitar lessons, torrins, fender, gibson, acoustic guitar, electric guitar, youtube covers, gootar, guitar tuner, A-Z tabs, 911 tabs