Bass Tabs for Silent Waters


Tabs for Song : Silent Waters 

Intro:

Gb|-----------------
Db|-----------------
Ab|----3--5--2--5---
Eb|-0---------------


Gb|-----------------------------------
Db|-----------------------------------
Ab|----3--5--2--5-----3--5--2---------
Eb|-0--------------0-----------3--2---

Vers 1: 2x

Gb|----------------------------------------
Db|----------------------------------------
Ab|----3-----2-----3-----2-----3-----2--5--
Eb|-0-----3-----0-----3-----0-----3--------

Prechorus: 2x

Gb|----------------------
Db|----------------------
Ab|-7--3-----2--7--3--5--
Eb|-------3--------------

Chorus:

Gb|----------------------------------
Db|----------------------------------
Ab|-7--3-----2--5--7--3-----2--------
Eb|-------3--------------3-----3--2--

√úbergang in Vers 2: 4x

Gb|-------------
Db|-------------
Ab|----3-----2--
Eb|-0-----3-----

Vers 2:

Gb|----------------------------------------
Db|----------------------------------------
Ab|----3-----2-----3-----2-----3-----2--5--
Eb|-0-----3-----0-----3-----0-----3--------

Gb|----5-----4-----5-----4--7--
Db|-2-----5-----2-----5--------
Ab|----------------------------
Eb|----------------------------

Prechorus (siehe oben)
Chorus (siehe oben)

Zwischenteil:

Gb|----------------------------------
Db|----------------------------------
Ab|-3--5--7--10-9--10-3--5--2--------
Eb|----------------------------3--2--

Bass alleine: 6x

Gb|-------------
Db|-------------
Ab|----3-----2--
Eb|-0-----3-----

Prechorus (siehe oben)
Chorus (siehe oben)









Paste any tab in acousterr's tab maker and we'll play it !!!
Now supports capo and sound effects for vibrato/pull-off/hammer/bends/mutes etc !!! Checkout help section
tabs and chords, guitar tabs, music contests, music covers, songsterr, reverbnation, renditions, tabulature, bollywood chords, ultimate guitar, yousician, guitar lessons, torrins, fender, gibson, acoustic guitar, electric guitar, youtube covers, gootar, guitar tuner, A-Z tabs, 911 tabs