Guitar Tabs for Shirohae - Yasuharu Takanashi (by Qnbo)

(/) Slide Up  (\) Slide Down  (h) Hammer On  (p) Pull Off  (b) Bend (r) Release (v) Vibrato (x) Muted

Tabs for Song : 
BPM : 200

CHAPTER 1 =========================================================================================================
E|-------------------------------------------------|-----------------------------------------------|
B|--------------3-----------1----------------------|------------0-----------1----------------------|
G|--2-----------2-----------2----------------------|2-----------2-----------2----------------------|
D|--------2-----------2----------------------------|------2-----------2----------------------------|
A|--0----------------------------------------------|0----------------------------------------------|
E|-------------------------------------------------|-----------------------------------------------|

E|-----------------------------------------------0----|
B|-----------------------1-----3----------------------|
G|--0-h-2----------2------------------------2---------|
D|-----------2-----------------------2----------------|
A|--0-------------------------------------------------|
E|----------------------------------------------------|

E|-------------------------------------------------|---------------------------------------------3-------|
B|--------------------------1----------------------|---------------------1-----3-------------------------|
G|--2-----------2-----------------------2----------|0-h-2-----------2------------------------2-----------|
D|--------3-----------3-----------3-----------3----|---------0-----------------------0-------------------|
A|--3----------------------------------------------|-----------------------------------------------------|
E|-------------------------------------------------|3----------------------------------------------------|

E|--0-----------------------------------0-----3----|3-/-5---------------------------------|
B|--------------------------1----------------------|--------------------------------------|
G|--------------0-----------------0----------------|---------0-----------0-----5-----0----|
D|--------2-----------2----------------------------|3--------------3----------------------|
A|--3----------------------------------------------|--------------------------------------|
E|-------------------------------------------------|--------------------------------------|

E|-3-----0-----0-----------------------------------------------|------------------0----------------------|
B|--------------------------------------1----------------------|3-----------------------0----------------|
G|--------------------------2-----------------------2----------|------------0-----------------------0----|
D|--------------------2-----------2-----------2-----------2----|------0-----------------------0----------|
A|-------------0-----------------------------------------------|-----------------------------------------|
E|-------------------------------------------------------------|3-----------------------3----------------|

E|-------------------------------------------------------|-----------------------------------------------|
B|--1-----------------------------1----------------------|------------------------1----------------------|
G|--------2-----------2-----------------------2----------|------------2----------------------------------|
D|--------------3-----------3-----------3-----------3----|------3-----------3----------------------------|
A|--------3----------------------------------------------|3----------------------------------------------|
E|-------------------------------------------------------|-----------------------------------------------|
CHORUS X3 =========================================================================================================
E|-----------------------------8----------------------|7-----------5-----------3----------------------|
B|--3-/-5---------------------------------------------|------------------------------------0----------|
G|-----------------5-----------------------5----------|------0-----------0-----------0-----------0----|
D|-----------7-----------7-----------7-----------7----|-----------------------------------------------|
A|--0--------------------------0----------------------|-----------------------------------------------|
E|----------------------------------------------------|3-----------------------3----------------------|

E|--5-----------7-----------8----------------------|0-----------1-----------3----------------------|
B|--------0-----------0----------------------------|-----------------------------------------------|
G|--------------------------------------5----------|------0-----------0-----------------0----------|
D|--3-----------------------3-----7-----------7----|------------------------------2-----------2----|
A|-------------------------------------------------|3-----------------------3----------------------|
E|-------------------------------------------------|-----------------------------------------------|

E|--------------------------5----------------------|8-----------7-----------5----------------------|
B|--3-----------------------------------5----------|------------------------------------5----------|
G|--------------2-----------------5-----------5----|------5-----------5-----------5-----------5----|
D|--------3-----------3-----3----------------------|-----------------------------------------------|
A|-------------------------------------------------|0-----------------------0----------------------|
E|--1----------------------------------------------|-----------------------------------------------|

 
E|--5-/-7----------------------3----------------------|5-----------------------8-----------7----------|
B|-----------------0-----------------------0----------|------------5----------------------------------|
G|-----------0-----------0-----------0-----------0----|------5-----------5----------------------------|
D|----------------------------------------------------|3-----------------------------7----------------|
A|----------------------------------------------------|------------------------8----------------------|
E|--0--------------------------3----------------------|-----------------------------------------------|
AFTER 3XCHORUS =================================================================================================
E|--7-----------------------5----------------------|
B|--------------------------5----------------------|
G|--------------7-----------5----------------------|
D|-------------------------------------------------|
A|--0-----7-----------7-----0----------------------|
E|-------------------------------------------------|
CHAPTER 2 ======================================================================================================

E|----------------------------------------------|-----------------------------------------------------------|
B|--------------0-----------1-------------------|------------------------1-----3-------------------3-/-5----|
G|--2-----------2-----------2-------------------|0-h-2------------------------------------------------------|
D|--------2-----------2-------------------------|-----------------------------------------------------------|
A|--0-------------------------------------------|0----------------------------------------------------------|
E|----------------------------------------------|-----------------------------------------------------------|

E|-------------------------------------------|
B|-------------------------------------------|
G|--2----------------------------------------|
D|--3----------------------------------------|
A|--3----------------------------------------|
E|-------------------------------------------|

E|--------------------------------------------------3----|0-----------------------------------0-----3----|
B|--------------------------1-----3----------------------|------------------------1-----0----------------|
G|--0-h-2-------------------------------------2----------|------------0-----------------------0----------|
D|--------------------------------------0----------------|------2-----------2-----------------------2----|
A|-------------------------------------------------------|3----------------------------------------------|
E|--3----------------------------------------------------|-----------------------------------------------|

E|--3-/-5----------------------------------3-----0----|0----------------------------------------------|
B|----------------------------------------------------|------------------------1----------------------|
G|-----------0-----------0-----5-----0----------------|------------2-----------------------2----------|
D|--3--------------3----------------------------------|------2-----------2-----------2-----------2----|
A|----------------------------------------------------|0----------------------------------------------|
E|----------------------------------------------------|-----------------------------------------------|

E|--------------------0----------------------|-----------------------------------------------------|
B|--3-----------------------0----------------|1-----------------------------1----------------------|
G|--------------0-----------------------0----|------2-----------2-----------------------2----------|
D|--------0-----------------------0----------|------------3-----------3-----------3-----------3----|
A|-------------------------------------------|------3----------------------------------------------|
E|--3-----------------------3----------------|-----------------------------------------------------|

E|--5----------------------------------------------|
B|--------------------------1----------------------|
G|--------------2-----------------------2----------|
D|--------3-----------3-----------3-----------3----|
A|-------------------------------------------------|
E|--1----------------------------------------------|

E|-------------------------------------------------------------------------|
B|--------------------------------------1----------------------------------|
G|--------------------2-----------------------------------2----------------|
D|-----------2-----------------2-----------------2-----------------2-------|
A|--0----------------------------------------------------------------------|
E|-------------------------------------------------------------------------|

E|---0/--------------------|
B|---1/--------------------|
G|---2/--------------------|
D|---2/--------------------|
A|---0/--------------------|
E|-------------------------|

Use manual mode to free up cursor. Paste any tab in acousterr tab maker and we'll play it !!!
tabs and chords, guitar tabs, music transcription, music technology, deep learning, music information retrieval, transcribe into tabs & chords, chordify, music renditions, songsterr, reverbnation, tabulature, bollywood chords, ultimate guitar, yousician, guitar lessons, acoustic guitar, electric guitar, guitar tuner, 911 tabs