Guitar Tabs for Shindig By Shadows

(/) Slide Up  (\) Slide Down  (h) Hammer On  (p) Pull Off  (b) Bend (r) Release (v) Vibrato (x) Muted

Tabs & Chords
BPM : 93.0
Check Track 2 for Chord Positions 

    A                                                                 F#m         A        F#m
E|--0-----------------------------------------------------------------0--------------0-----0--
B|-----------------------------------------------------------------12-------------------------
G|--------------------------------------------------------------------------------------------
D|--------------------------------------------------------------------------11----11----------
A|-----0-----0--0--0-----0--0--------------12----0--0-----------------------------------------
E|--------------------------------12-------------------0--------------------------------------

             A     F#m   D     E           A                 E              A                 F#m
E|--0--------------------------------0-----------------------------0--------------------------0--
B|--------------------------0-----0-----------------------------0--------------------------------
G|-----------------------------------------------------------------------------------------------
D|-----------------------12----10----------------------12----10----------------------------------
A|-----------------12-9-----------------9-----0--0--------------------9-----12----------12-------
E|-----2-----12----------------------------0--------0-----------------------------12-------------

                   A                                      F#m      E     A     D     E     A  
E|-----------------------------0-----0--------------12----9-----------------------------------
B|--------0-----------------0--------------------------------12----12----10----12-------------
G|-----------------------------------------------------------------------------------11-------
D|--11----------------------------11----11----------------------------------------------------
A|-----------12-9-----9--------------------------------------------------------------------0--
E|-----------------12-------------------------12----------------------------------------------

             F#m                                                            A     D     A        
E|-----------------------------------------------------------------------------------------------
B|-----------------------------------------------------------------------------------------------
G|-----------------------------------------------------------------------------------------------
D|--------------------------11-11-------------------------------------11----11----------11-------
A|-----0-----------------------------------------------------------0--------------12----------0--
E|-----------9--9--9--9--9--------2--2--2-----2--2--2-----2--2-----------------------------------

    F#m         A     Bm       E     A                       D                 B              
E|--------------------------------------------------------------------------------------------
B|--------------------------------------------------------------------------------------------
G|--------------------------------------------------------------------------------------------
D|--------11----11----12-------------------------------------------12-------------------------
A|-----------------------9-----------9--12----12-9-----12----12-------9--------12----12-12-12-
E|--2--2-----------------------12-------------------12-------------------12-------------------

                   E                                      A           F#m            A        
E|--------------------------------------------------------------------0-----------------------
B|-----------------0--0--------------------------------------------0--------0-----------------
G|-----------0--------------------0-----------------------------------------------------------
D|-----------------------------------0-----------0--------------------------------------------
A|--9--9-----------------12----11-------------------------------12-------------12----------12-
E|-----------------------------------------12-------7-----12-------------------------12-12----

                      F#m         E        A           D     E        A           D        G  
E|-----0--0--0--0-----0--0-----------------------------------------0--------------0-----------
B|--0-----------------------------------------------------0-----0-----------------------------
G|-----------------------------------------------------------------------------------11----12-
D|--------------------------------10----------------11-------10----------12-11----------------
A|-----------------------------------12----12-12-------12-------------12----------------------
E|--------------------------2--2--------------------------------------------------------------

                A                 D        G           A                             D           
E|--------0-----0-----0--0--0--0--0-----------------0--------------9-----------------0-----------
B|-----------------10----------------------------------10-12-10----------------------------------
G|--12-12----------------------------11----12-12-12-------------------------------------11----11-
D|-----------------------------------------------------------------------------------------------
A|--------------------------------------------------------------------------0-----0--------------
E|--------------------------------------------------------------------0--------0-----------------

    E                 A     F#m      Bm          E                                            A  
E|-----------9--10----10-------9-----9--------------------0--0-----0-----0--0--0-----0--0--------
B|-----9-----------------12-10-------------10----12-12----------0--------------------------------
G|--11-------------------------------------------------------------------------------------------
D|-----------------------------------------------------------------------------------------------
A|-----------------------------------------------------------------------------------------------
E|--------------------------------------------------------------------------------------------12-

                      F#m      A                                         F#m   D  E           A  
E|-----------0-----------------------------------9--9-----9-----0-----------------------0-----0--
B|--------0-----------0-----------------------0-----------------------0--0-----------0-----------
G|-----------------------------------------------------------------------------------------------
D|--------------11-------------------------11----------------------11----------12-10-------------
A|-----12----------------12----------12-------------------------------------12-------------------
E|-----------------------------12----------------------------------------------------------------

       D     E        A                                                              F#m      
E|--9-----------0-----------0--0-----0-----0--------------------0-----------------0-----------
B|--------0--------------------------------------0-----------0-----------------0-----------0--
G|--------------------------------------------------------------------------------------------
D|-----12----10----------12-------------------11-------11----------11-11-11----------11-------
A|-----------------9--12----------------------------------12----------------------------------
E|--------------------------------------------------------------------------------------------

          D     E        A  D     E           A                                               
E|-----------------0-----0-----------------------------0--------------------------------------
B|-----------0-----------------------0--------------------------------------------------------
G|-----------------------------------------------0--------------------------------------------
D|--------12----10----------12----10----------------13-------------------13-------------------
A|--12-9--------------------------------9-----------------0--0--0--0--------0--0--0--0-----0--
E|--------------------------------------------12----------------------0-----------------------

             
E|-----------
B|-----------
G|-----------
D|-----------
A|-----12-0--
E|-----------

Guitar Tabs for Shindig By Shadows






    A                                                                 F#m         A        F#m
E|--0-----------------------------------------------------------------2-----------0--------2--
B|--2-----------------------------------------------------------------2-----------2--------2--
G|--2-----------------------------------------------------------------2-----------2--------2--
D|--2-----------------------------------------------------------------4-----------2--------4--
A|--0-----------------------------------------------------------------4-----------0--------4--
E|--------------------------------------------------------------------2--------------------2--

             A     F#m   D     E           A                 E              A                 F#m
E|-----------0-----2-----2-----0-----------0-----------------0--------------0-----------------2--
B|-----------2-----2-----3-----0-----------2-----------------0--------------2-----------------2--
G|-----------2-----2-----2-----1-----------2-----------------1--------------2-----------------2--
D|-----------2-----4-----0-----2-----------2-----------------2--------------2-----------------4--
A|-----------0-----4-----------2-----------0-----------------2--------------0-----------------4--
E|-----------------2-----------0-----------------------------0--------------------------------2--

                   A                                      F#m      E     A     D     E     A  
E|-----------------0--------------------------------------2--------0-----0-----2-----0-----0--
B|-----------------2--------------------------------------2--------0-----2-----3-----0-----2--
G|-----------------2--------------------------------------2--------1-----2-----2-----1-----2--
D|-----------------2--------------------------------------4--------2-----2-----0-----2-----2--
A|-----------------0--------------------------------------4--------2-----0-----------2-----0--
E|--------------------------------------------------------2--------0-----------------0--------

             F#m                                                            A     D     A        
E|-----------2--------------------------------------------------------------0-----2-----0--------
B|-----------2--------------------------------------------------------------2-----3-----2--------
G|-----------2--------------------------------------------------------------2-----2-----2--------
D|-----------4--------------------------------------------------------------2-----0-----2--------
A|-----------4--------------------------------------------------------------0-----------0--------
E|-----------2-----------------------------------------------------------------------------------

    F#m         A     Bm       E     A                       D                 B              
E|--2-----------0-----2--------0-----0-----------------------2-----------------2--------------
B|--2-----------2-----3--------0-----2-----------------------3-----------------4--------------
G|--2-----------2-----4--------1-----2-----------------------2-----------------4--------------
D|--4-----------2-----4--------2-----2-----------------------0-----------------4--------------
A|--4-----------0-----2--------2-----0-----------------------------------------2--------------
E|--2--------------------------0--------------------------------------------------------------

                   E                                      A           F#m            A        
E|-----------------0--------------------------------------0-----------2--------------0--------
B|-----------------0--------------------------------------2-----------2--------------2--------
G|-----------------1--------------------------------------2-----------2--------------2--------
D|-----------------2--------------------------------------2-----------4--------------2--------
A|-----------------2--------------------------------------0-----------4--------------0--------
E|-----------------0--------------------------------------------------2-----------------------

                      F#m         E        A           D     E        A           D        G  
E|--------------------2-----------0--------0-----------2-----0--------0-----------2--------3--
B|--------------------2-----------0--------2-----------3-----0--------2-----------3--------3--
G|--------------------2-----------1--------2-----------2-----1--------2-----------2--------4--
D|--------------------4-----------2--------2-----------0-----2--------2-----------0--------5--
A|--------------------4-----------2--------0-----------------2--------0--------------------5--
E|--------------------2-----------0--------------------------0-----------------------------3--

                A                 D        G           A                             D           
E|--------------0-----------------2--------3-----------0-----------------------------2-----------
B|--------------2-----------------3--------3-----------2-----------------------------3-----------
G|--------------2-----------------2--------4-----------2-----------------------------2-----------
D|--------------2-----------------0--------5-----------2-----------------------------0-----------
A|--------------0--------------------------5-----------0-----------------------------------------
E|-----------------------------------------3-----------------------------------------------------

    E                 A     F#m      Bm          E                                            A  
E|--0-----------------0-----2--------2-----------0--------------------------------------------0--
B|--0-----------------2-----2--------3-----------0--------------------------------------------2--
G|--1-----------------2-----2--------4-----------1--------------------------------------------2--
D|--2-----------------2-----4--------4-----------2--------------------------------------------2--
A|--2-----------------0-----4--------2-----------2--------------------------------------------0--
E|--0-----------------------2--------------------0-----------------------------------------------

                      F#m      A                                         F#m   D  E           A  
E|--------------------2--------0-----------------------------------------2-----2--0-----------0--
B|--------------------2--------2-----------------------------------------2-----3--0-----------2--
G|--------------------2--------2-----------------------------------------2-----2--1-----------2--
D|--------------------4--------2-----------------------------------------4-----0--2-----------2--
A|--------------------4--------0-----------------------------------------4--------2-----------0--
E|--------------------2--------------------------------------------------2--------0--------------

       D     E        A                                                              F#m      
E|-----2-----0--------0--------------------------------------------------------------2--------
B|-----3-----0--------2--------------------------------------------------------------2--------
G|-----2-----1--------2--------------------------------------------------------------2--------
D|-----0-----2--------2--------------------------------------------------------------4--------
A|-----------2--------0--------------------------------------------------------------4--------
E|-----------0-----------------------------------------------------------------------2--------

          D     E        A  D     E           A                                               
E|--------2-----0--------0--2-----0-----------0-----------------------------------------------
B|--------3-----0--------2--3-----0-----------2-----------------------------------------------
G|--------2-----1--------2--2-----1-----------2-----------------------------------------------
D|--------0-----2--------2--0-----2-----------2-----------------------------------------------
A|--------------2--------0--------2-----------0-----------------------------------------------
E|--------------0-----------------0-----------------------------------------------------------

             
E|-----------
B|-----------
G|-----------
D|-----------
A|-----------
E|-----------

tabs and chords, guitar tabs, music transcription, music technology, deep learning, music information retrieval, transcribe into tabs & chords, chordify, music renditions, songsterr, reverbnation, tabulature, bollywood chords, ultimate guitar, yousician, guitar lessons, acoustic guitar, electric guitar, guitar tuner, 911 tabs