She Said - Scorpions - Guitar Tabs

Ac. guitar
    
                                                                                                                                                                                                                                                                                                                                                                                                                                                                                                                                                                                                                                                                                                                                                                                                                                                                                                                                                                                                                                                                                                                                                                                              
E|--3--3--3--3--3-----3--3-|3--3--3--3--3-----3--3-|
B|--3--3--3--3--3-----3--3-|3--3--3--3--3-----3--3-|
G|--4--4--4--4--4-----4--4-|4--4--4--4--4-----4--4-|
D|--5--5--5--5--5-----5--5-|5--5--5--5--5-----5--5-|
A|--5--5--5--5--5-----5--5-|5--5--5--5--5-----5--5-|
E|--3--3--3--3--3-----3--3-|3--3--3--3--3-----3--3-|

    
                                                                                                                                                                                                                                                                                                                                                                                                                                                                                                                                                                                                                                                                                                                                                                                                                                                                                                                                                                                                                                                                                                                                                                                              
E|--2--2--2--2--2-----2--2-|2--2--2--2--2-----2--2-|
B|--3--3--3--3--3-----3--3-|3--3--3--3--3-----3--3-|
G|--4--4--4--4--4-----4--4-|4--4--4--4--4-----4--4-|
D|--4--4--4--4--4-----4--4-|4--4--4--4--4-----4--4-|
A|--2--2--2--2--2-----2--2-|2--2--2--2--2-----2--2-|
E|-------------------------|-----------------------|

    
                                                                                                                                                                                                                                                                                                                                                                                                                                                                                                                                                                                                                                                                                                                                                                                                                                                                                                                                                                                                                                                                                                                                                                                              
E|--3--3--3--3--3-----3--3-|3--3--3--3--3-----3--3-|
B|--5--5--5--5--5-----5--5-|5--5--5--5--5-----5--5-|
G|--5--5--5--5--5-----5--5-|5--5--5--5--5-----5--5-|
D|--5--5--5--5--5-----5--5-|5--5--5--5--5-----5--5-|
A|--3--3--3--3--3-----3--3-|3--3--3--3--3-----3--3-|
E|-------------------------|-----------------------|

    
                                                                                                                                                                                                                                                                                                                                                                                                                                                                                                                                                                                                                                                                                                                                                                                                                                                                                                                                                                                                                                                                                                                                                                                              
E|--5--5--5--5--5-----5--5-|5--5--5--5--5-----5--5-|
B|--7--7--7--7--7-----7--7-|7--7--7--7--7-----7--7-|
G|--7--7--7--7--7-----7--7-|7--7--7--7--7-----7--7-|
D|--7--7--7--7--7-----7--7-|7--7--7--7--7-----7--7-|
A|--5--5--5--5--5-----5--5-|5--5--5--5--5-----5--5-|
E|-------------------------|-----------------------|

    
                                                                                                                                                                                                                                                                                                                                                                                                                                                                                                                                                                                                                                                                                                                                                                                                                                                                                                                                                                                                                                                                                                                                                                                              
E|--3--3--3--3--3-----3--3-|3--3--3--3--3-----3--3-|
B|--3--3--3--3--3-----3--3-|3--3--3--3--3-----3--3-|
G|--4--4--4--4--4-----4--4-|4--4--4--4--4-----4--4-|
D|--5--5--5--5--5-----5--5-|5--5--5--5--5-----5--5-|
A|--5--5--5--5--5-----5--5-|5--5--5--5--5-----5--5-|
E|--3--3--3--3--3-----3--3-|3--3--3--3--3-----3--3-|

    
                                                                                                                                                                                                                                                                                                                                                                                                                                                                                                                                                                                                                                                                                                                                                                                                                                                                                                                                                                                                                                                                                                                                                                                              
E|--2--2--2--2--2-----2--2-|2--2--2--2--2-----2--2-|
B|--3--3--3--3--3-----3--3-|3--3--3--3--3-----3--3-|
G|--4--4--4--4--4-----4--4-|4--4--4--4--4-----4--4-|
D|--4--4--4--4--4-----4--4-|4--4--4--4--4-----4--4-|
A|--2--2--2--2--2-----2--2-|2--2--2--2--2-----2--2-|
E|-------------------------|-----------------------|

    
                                                                                                                                                                                                                                                                                                                                                                                                                                                                                                                                                                                                                                                                                                                                                                                                                                                                                                                                                                                                                                                                                                                                                                                              
E|--3--3--3--3--3-----3--3-|3--3--3--3--3-----3--3-|
B|--5--5--5--5--5-----5--5-|5--5--5--5--5-----5--5-|
G|--5--5--5--5--5-----5--5-|5--5--5--5--5-----5--5-|
D|--5--5--5--5--5-----5--5-|5--5--5--5--5-----5--5-|
A|--3--3--3--3--3-----3--3-|3--3--3--3--3-----3--3-|
E|-------------------------|-----------------------|

    
                                                                                                                                                                                                                                                                                                                                                                                                                                                                                                                                                                                                                                                                                                                                                                                                                                                                                                                                                                                                                                                                                                                                                                                              
E|--1--1--1--1--1-----1--1-|1--1--1--1--1-----1--1-|
B|--1--1--1--1--1-----1--1-|1--1--1--1--1-----1--1-|
G|--2--2--2--2--2-----2--2-|2--2--2--2--2-----2--2-|
D|--3--3--3--3--3-----3--3-|3--3--3--3--3-----3--3-|
A|--3--3--3--3--3-----3--3-|3--3--3--3--3-----3--3-|
E|--1--1--1--1--1-----1--1-|1--1--1--1--1-----1--1-|

    
                                                                                                                                                                                                                                                                                                                                                                                                                                                                                                                                                                                                                                                                                                                                                                                                                                                                                                                                                                                                                                                                                                                                                                                              
E|--3--3--3--3--3--3--3--3-|3--3--3--3--3-----3--3-|
B|--3--3--3--3--3--3--3--3-|5--5--5--5--5-----5--5-|
G|--4--4--4--4--4--4--4--4-|5--5--5--5--5-----5--5-|
D|--5--5--5--5--5--5--5--5-|5--5--5--5--5-----5--5-|
A|--5--5--5--5--5--5--5--5-|3--3--3--3--3-----3--3-|
E|--3--3--3--3--3--3--3--3-|-----------------------|

    
                                                                                                                                                                                                                                                                                                                                                                                                                                                                                                                                                                                                                                                                                                                                                                                                                                                                                                                                                                                                                                                                                                                                                                                              
E|--5--5--5--5--5-----5--5-|1--1--1--1--1-----1--1-|
B|--5--5--5--5--5-----5--5-|1--1--1--1--1-----1--1-|
G|--5--5--5--5--5-----5--5-|2--2--2--2--2-----2--2-|
D|--7--7--7--7--7-----7--7-|3--3--3--3--3-----3--3-|
A|--7--7--7--7--7-----7--7-|3--3--3--3--3-----3--3-|
E|--5--5--5--5--5-----5--5-|1--1--1--1--1-----1--1-|

    
                                                                                                                                                                                                                                                                                                                                                                                                                                                                                                                                                                                                                                                                                                                                                                                                                                                                                                                                                                                                                                                                                                                                                                                              
E|--3--3--3--3--3-----3--3-|0--0--0--0--0-----0--0-|
B|--3--3--3--3--3-----3--3-|0--0--0--0--0-----0--0-|
G|--4--4--4--4--4-----4--4-|0--0--0--0--0-----0--0-|
D|--5--5--5--5--5-----5--5-|2--2--2--2--2-----2--2-|
A|--5--5--5--5--5-----5--5-|2--2--2--2--2-----2--2-|
E|--3--3--3--3--3-----3--3-|0--0--0--0--0-----0--0-|

    
                                                                                                                                                                                                                                                                                                                                                                                                                                                                                                                                                                                                                                                                                                                                                                                                                                                                                                                                                                                                                                                                                                                                                                                              
E|--5--5--5--5--5-----5--5-|1--1--1--1--1-----1--1-|
B|--5--5--5--5--5-----5--5-|1--1--1--1--1-----1--1-|
G|--5--5--5--5--5-----5--5-|2--2--2--2--2-----2--2-|
D|--7--7--7--7--7-----7--7-|3--3--3--3--3-----3--3-|
A|--7--7--7--7--7-----7--7-|3--3--3--3--3-----3--3-|
E|--5--5--5--5--5-----5--5-|1--1--1--1--1-----1--1-|

    
                                                                                                                                                                                                                                                                                                                                                                                                                                                                                                                                                                                                 
E|--3--3--3--3--3-----3--3-|
B|--3--3--3--3--3-----3--3-|
G|--4--4--4--4--4-----4--4-|
D|--5--5--5--5--5-----5--5-|
A|--5--5--5--5--5-----5--5-|
E|--3--3--3--3--3-----3--3-|

    
                                                                                                                                                                                                                                                                                                                                                                                                                                                                                                                                                                                                                                                                                                                                                                                                                                                                                                                                                                                                                                                                                                                                                                                              
E|--3--3--3--3--3-----3--3-|3--3--3--3--3-----3--3-|
B|--3--3--3--3--3-----3--3-|3--3--3--3--3-----3--3-|
G|--4--4--4--4--4-----4--4-|4--4--4--4--4-----4--4-|
D|--5--5--5--5--5-----5--5-|5--5--5--5--5-----5--5-|
A|--5--5--5--5--5-----5--5-|5--5--5--5--5-----5--5-|
E|--3--3--3--3--3-----3--3-|3--3--3--3--3-----3--3-|

    
                                                                                                                                                                                                                                                                                                                                                                                                                                                                                                                                                                                                                                                                                                                                                                                                                                                                                                                                                                                                                                                                                                                                                                                              
E|--2--2--2--2--2-----2--2-|2--2--2--2--2-----2--2-|
B|--3--3--3--3--3-----3--3-|3--3--3--3--3-----3--3-|
G|--4--4--4--4--4-----4--4-|4--4--4--4--4-----4--4-|
D|--4--4--4--4--4-----4--4-|4--4--4--4--4-----4--4-|
A|--2--2--2--2--2-----2--2-|2--2--2--2--2-----2--2-|
E|-------------------------|-----------------------|

    
                                                                                                                                                                                                                                                                                                                                                                                                                                                                                                                                                                                                                                                                                                                                                                                                                                                                                                                                                                                                                                                                                                                                                                                              
E|--3--3--3--3--3-----3--3-|3--3--3--3--3-----3--3-|
B|--5--5--5--5--5-----5--5-|5--5--5--5--5-----5--5-|
G|--5--5--5--5--5-----5--5-|5--5--5--5--5-----5--5-|
D|--5--5--5--5--5-----5--5-|5--5--5--5--5-----5--5-|
A|--3--3--3--3--3-----3--3-|3--3--3--3--3-----3--3-|
E|-------------------------|-----------------------|

    
                                                                                                                                                                                                                                                                                                                                                                                                                                                                                                                                                                                                                                                                                                                                                                                                                                                                                                                                                                                                                                                                                                                                                                                              
E|--5--5--5--5--5-----5--5-|5--5--5--5--5-----5--5-|
B|--7--7--7--7--7-----7--7-|7--7--7--7--7-----7--7-|
G|--7--7--7--7--7-----7--7-|7--7--7--7--7-----7--7-|
D|--7--7--7--7--7-----7--7-|7--7--7--7--7-----7--7-|
A|--5--5--5--5--5-----5--5-|5--5--5--5--5-----5--5-|
E|-------------------------|-----------------------|

    
                                                                                                                                                                                                                                                                                                                                                                                                                                                                                                                                                                                                                                                                                                                                                                                                                                                                                                                                                                                                                                                                                                                                                                                              
E|--3--3--3--3--3-----3--3-|3--3--3--3--3-----3--3-|
B|--3--3--3--3--3-----3--3-|3--3--3--3--3-----3--3-|
G|--4--4--4--4--4-----4--4-|4--4--4--4--4-----4--4-|
D|--5--5--5--5--5-----5--5-|5--5--5--5--5-----5--5-|
A|--5--5--5--5--5-----5--5-|5--5--5--5--5-----5--5-|
E|--3--3--3--3--3-----3--3-|3--3--3--3--3-----3--3-|

    
                                                                                                                                                                                                                                                                                                                                                                                                                                                                                                                                                                                                                                                                                                                                                                                                                                                                                                                                                                                                                                                                                                                                                                                              
E|--2--2--2--2--2-----2--2-|2--2--2--2--2-----2--2-|
B|--3--3--3--3--3-----3--3-|3--3--3--3--3-----3--3-|
G|--4--4--4--4--4-----4--4-|4--4--4--4--4-----4--4-|
D|--4--4--4--4--4-----4--4-|4--4--4--4--4-----4--4-|
A|--2--2--2--2--2-----2--2-|2--2--2--2--2-----2--2-|
E|-------------------------|-----------------------|

    
                                                                                                                                                                                                                                                                                                                                                                                                                                                                                                                                                                                                                                                                                                                                                                                                                                                                                                                                                                                                                                                                                                                                                                                              
E|--3--3--3--3--3-----3--3-|3--3--3--3--3-----3--3-|
B|--5--5--5--5--5-----5--5-|5--5--5--5--5-----5--5-|
G|--5--5--5--5--5-----5--5-|5--5--5--5--5-----5--5-|
D|--5--5--5--5--5-----5--5-|5--5--5--5--5-----5--5-|
A|--3--3--3--3--3-----3--3-|3--3--3--3--3-----3--3-|
E|-------------------------|-----------------------|

    
                                                                                                                                                                                                                                                                                                                                                                                                                                                                                                                                                                                                                                                                                                                                                                                                                                                                                                                                                                                                                                                                                                                                                                                              
E|--1--1--1--1--1-----1--1-|1--1--1--1--1-----1--1-|
B|--1--1--1--1--1-----1--1-|1--1--1--1--1-----1--1-|
G|--2--2--2--2--2-----2--2-|2--2--2--2--2-----2--2-|
D|--3--3--3--3--3-----3--3-|3--3--3--3--3-----3--3-|
A|--3--3--3--3--3-----3--3-|3--3--3--3--3-----3--3-|
E|--1--1--1--1--1-----1--1-|1--1--1--1--1-----1--1-|

    
                                                                                                                                                                                                                                                                                                                                                                                                                                                                                                                                                                                                 
E|--3--3--3--3--3--3--3--3-|
B|--3--3--3--3--3--3--3--3-|
G|--4--4--4--4--4--4--4--4-|
D|--5--5--5--5--5--5--5--5-|
A|--5--5--5--5--5--5--5--5-|
E|--3--3--3--3--3--3--3--3-|
tabs and chords, guitar tabs, music transcription, music technology, deep learning, music information retrieval, transcribe into tabs & chords, chordify, music renditions, songsterr, reverbnation, tabulature, bollywood chords, ultimate guitar, yousician, guitar lessons, acoustic guitar, electric guitar, guitar tuner, 911 tabs