Guitar Tabs for She Hates Me Basic Progression

(/) Slide Up  (\) Slide Down  (h) Hammer On  (p) Pull Off  (b) Bend (r) Release (v) Vibrato (x) Muted

Tabs for Song : 
E|--1--------3--------3--------0--------
B|--3--------5--------3--------1--------
G|--3--------5--------4--------0--------
D|--3--------5--------5--------2--------
A|--1--------3--------5--------3--------
E|--1--------3--------3--------0--------


Song lyrics here
E|--1--------3--------3--------6--
B|--3--------5--------3--------6--
G|--3--------5--------4--------7--
D|--3--------5--------5--------7--
A|--1--------3--------5--------8--
E|--1--------3--------3--------6--

Song lyrics here
E|--
B|--
G|--
D|--
A|--
E|--

Now supports capo and sound effects for vibrato/pull-off/hammer/bends/mutes etc !!! Checkout help section
tabs and chords, guitar tabs, music transcription, music technology, deep learning, music information retrieval, transcribe into tabs & chords, chordify, music renditions, songsterr, reverbnation, tabulature, bollywood chords, ultimate guitar, yousician, guitar lessons, acoustic guitar, electric guitar, guitar tuner, 911 tabs