Guitar Tabs for Shape Of You

(/) Slide Up  (\) Slide Down  (h) Hammer On  (p) Pull Off  (b) Bend (r) Release (v) Vibrato (x) Muted

Capo at fret 2
Tabs for Song : Shape Of You
BPM : 320

Verse 1
E|--------------------------------------------------------------------------------------------------
B|- 1-----1--1--1--1-----1-----1--1--1-----1--1--1--1-----1----/3--5-----5--------------------------
G|--------------------------------------------------------------------------------------------------
D|--------------------------------------------------------------------------------------------------
A|--------------------------------------------------------------------------------------------------
E|--------------------------------------------------------------------------------------------------

E|--3--0--0--0-----0-----0-----------0-----------------------0--------------------------------------
B|--------------------------3--3--3-----3-----3--3--3-----3-----3--1--------------------------------
G|-----------------------------------------------------------------------2--------------------------
D|--------------------------------------------------------------------------------------------------
A|--------------------------------------------------------------------------------------------------
E|--------------------------------------------------------------------------------------------------

E|-----0-----0-----0-----0-----0-----0-----0--------3-----0--------------0--------------------------
B|--3-----3-----------------3-----3--------------3--------------3--1--------------------------------
G|--------------------------------------------------------------------------------------------------
D|--------------------------------------------------------------------------------------------------
A|--------------------------------------------------------------------------------------------------
E|--------------------------------------------------------------------------------------------------

E|-----------3-----0-----0-----------------------------------0--------------------------------------
B|--1-----------------------3--3--3--3-----3-----3--3-----3-----3--1--------------------------------
G|-----------------------------------------------------------------------2--------------------------
D|--------------------------------------------------------------------------------------------------
A|--------------------------------------------------------------------------------------------------
E|--------------------------------------------------------------------------------------------------

Pre-Chorus
E|--------------------------------0--------------------------0--------------------------0-----------
B|--------------------------------------3-----------3--3--------3-----1-----------1--------1--3-----
G|--2-----2-----2-----0-----2-----------------------------------------------2-----------------------
D|--------------------------------------------------------------------------------------------------
A|--------------------------------------------------------------------------------------------------
E|--------------------------------------------------------------------------------------------------

E|--------------3--0--0-----------------------------------------------------------------------------
B|--------------------------3--1--1-----------------3--3-----1--3-----1-----3-----1-----------------
G|--2-----------------------------------2-----------------------------------------------2-----0-----
D|--------------------------------------------------------------------------------------------------
A|--------------------------------------------------------------------------------------------------
E|--------------------------------------------------------------------------------------------------

E|--------------------------------0--------------------------0--------------------------0-----------
B|--------------------------------------3-----------3--3--------3-----1-----------1--------1--3-----
G|--2-----------2-----0-----2-----------------------------------------------2-----------------------
D|--------------------------------------------------------------------------------------------------
A|--------------------------------------------------------------------------------------------------
E|--------------------------------------------------------------------------------------------------

E|--------------3--0--0-----------------------------3--0--0-----------------------------------------
B|--------------------------3--1--1-----------------------------3--1--1-----------------------1-----
G|--2-----------------------------------2-----2-----------------------------2-----0-----2-----------
D|--------------------------------------------------------------------------------------------------
A|--------------------------------------------------------------------------------------------------
E|--------------------------------------------------------------------------------------------------

Chorus
E|--------------------------0-----------------------------------------------0-----------------------
B|--------------------1--3--------3--1--1-----3-----3-----------------1--3--------3--1--1-----3-----
G|--------------------------------------------------------------------------------------------------
D|--------------------------------------------------------------------------------------------------
A|--------------------------------------------------------------------------------------------------
E|--------------------------------------------------------------------------------------------------

E|--------------------------0-----------------------------------------------0-----------------------
B|--------------------1--3--------3--1--1-----3-----3-----------------1--3--------3--1--3-----------
G|--2--------------------------------------------------------------------------------------------2--
D|--------------------------------------------------------------------------------------------------
A|--------------------------------------------------------------------------------------------------
E|--------------------------------------------------------------------------------------------------

E|--------------------------0-----3--0--------------------------------------0-----------------------
B|--------------------3-----------------3-----1-----3-----------------1--3--------3-----1-----3-----
G|--------------------------------------------------------------------------------------------------
D|--------------------------------------------------------------------------------------------------
A|--------------------------------------------------------------------------------------------------
E|--------------------------------------------------------------------------------------------------

E|--------------------------0-----------------------------------------------0-----------------------
B|--------------------1--3--------------1-----3-----3-----------------1--3--------3--1--3-----------
G|--2-----2--2--2--2--------------2--------------------------------------------------------------2--
D|--------------------------------------------------------------------------------------------------
A|--------------------------------------------------------------------------------------------------
E|--------------------------------------------------------------------------------------------------

E|--------------------------------------------------------------------------0-----------------------
B|--------------1-----1-----3-----3-----5-----5-----------------------1--3--------3--1--3-----------
G|--2-----2--------------------------------------------------------------------------------------2--
D|--------------------------------------------------------------------------------------------------
A|--------------------------------------------------------------------------------------------------
E|--------------------------------------------------------------------------------------------------

E|--------------------------------------------------------------------------0-----------------------
B|--------------1-----1-----3-----3-----5-----5-----------------------1--3--------3--1--1-----------
G|--2-----2--------------------------------------------------------------------------------------2--
D|--------------------------------------------------------------------------------------------------
A|--------------------------------------------------------------------------------------------------
E|--------------------------------------------------------------------------------------------------

E|--------------------------------------------------------------------------0-----------------------
B|--------------1-----1-----3-----3-----5-----5-----------------------1--3--------3--1--1-----------
G|--2-----2--------------------------------------------------------------------------------------2--
D|--------------------------------------------------------------------------------------------------
A|--------------------------------------------------------------------------------------------------
E|--------------------------------------------------------------------------------------------------

E|--------------------------0-----------------------------------------------0-----------------------
B|--------------------1--3--------------1-----3-----3-----------------1--3--------3--1--1-----3-----
G|--------2--2--2--2--------------2-----------------------------------------------------------------
D|--------------------------------------------------------------------------------------------------
A|--------------------------------------------------------------------------------------------------
E|--------------------------------------------------------------------------------------------------

Verse 2
E|--------------------------------------------------------------------------------------------------
B|--1--1-----1-----1--1--1--1--1--1--1-----1--1--1--1-----1-----3--5-----5--------------------------
G|--------------------------------------------------------------------------------------------------
D|--------------------------------------------------------------------------------------------------
A|--------------------------------------------------------------------------------------------------
E|--------------------------------------------------------------------------------------------------

E|-----0--3-----0--0-----0--0--0-----------------------------------0--------------------------------------
B|--3-----------------------------3--3--3--3-----3--3--3--3-----3-----3--1--------------------------------
G|--------------------------------------------------------------------------2--2--------------------------
D|--------------------------------------------------------------------------------------------------------
A|--------------------------------------------------------------------------------------------------------
E|--------------------------------------------------------------------------------------------------------

E|-----0-----0-----0-----0-----0-----0-----0--------3-----0--------------0--------------------------
B|--3-----3-----------------3-----3--------------3--------------3--1--------------------------------
G|--------------------------------------------------------------------------------------------------
D|--------------------------------------------------------------------------------------------------
A|--------------------------------------------------------------------------------------------------
E|--------------------------------------------------------------------------------------------------

E|-----------3-----0-----0-----------------------------------0--------------------------------------
B|--1-----------------------3--3--3--3-----3-----3--3-----3-----3--1--------------------------------
G|-----------------------------------------------------------------------2--------------------------
D|--------------------------------------------------------------------------------------------------
A|--------------------------------------------------------------------------------------------------
E|--------------------------------------------------------------------------------------------------

Interlude (Loop This)
E|--0--0--------------------0-----------------------
B|-----------3-----1--3-----------------------------
G|--------------------------------2-----2-----------
D|--------------------------------------------------
A|--------------------------------------------------
E|--------------------------------------------------

E|--0--0--------------------------------------------
B|-----------3-----1--3-----1-----------------------
G|--------------------------------2-----2-----------
D|--------------------------------------------------
A|--------------------------------------------------
E|--------------------------------------------------
 






tabs and chords, guitar tabs, music transcription, music technology, deep learning, music information retrieval, transcribe into tabs & chords, chordify, music renditions, songsterr, reverbnation, tabulature, bollywood chords, ultimate guitar, yousician, guitar lessons, acoustic guitar, electric guitar, guitar tuner, 911 tabs