Bass Tabs for Sex On Fire - King Of Leon

(/) Slide Up  (\) Slide Down  (h) Hammer On  (p) Pull Off  (b) Bend (r) Release (v) Vibrato (x) Muted

Tabs for Song : 

Song lyrics here                           all the commotion...
G|----------------------------------------------------------------
D|--------------------------------------------------------------------
A|-----------------------11-11----------------------------------------
E|---9/1-----------12-12-------9--9-----------12----9-----------------
B|--------------------------------------------------------10----------

  Yeeeeeehooooo
G|--------------------------------------
D|--------------------------------------
A|--------------11-11-------------------
E|--12-12----------------9--9-----------
B|--------------------------------10-10-

   Apex
G|--------------------------------------------
D|--------9--11-11----------------------------
A|--12-12-------------12-12-------------------
E|--------------------------------------12-12-
B|--------------------------------------------


Paste any tab in acousterr's tab maker and we'll play it !!!
Now supports capo and sound effects for vibrato/pull-off/hammer/bends/mutes etc !!! Checkout help section
tabs and chords, guitar tabs, music transcription, music technology, deep learning, music information retrieval, transcribe into tabs & chords, chordify, music renditions, songsterr, reverbnation, tabulature, bollywood chords, ultimate guitar, yousician, guitar lessons, acoustic guitar, electric guitar, guitar tuner, 911 tabs