Guitar Tabs for Seven Nation Army

(/) Slide Up  (\) Slide Down  (h) Hammer On  (p) Pull Off  (b) Bend (r) Release (v) Vibrato (x) Muted

 
E|-----------------------------------------------------------------------------------------------------------------------------------
B|-----------------------------------------------------------------------------------------------------------------------------------
G|-----------------------------------------------------------------------------------------------------------------------------------
D|-----------------------------------------------------------------------------------------------------------------------------------
A|--------------5-----------------------------5--------------------------------5-----------------------------5-----------------------
E|-----7-----7-----7--5--3--2---3/7--------7-----7--5--3--2---3/7-----------7-----7--5--3--2---3/7--------7-----7--5--3--2-----------

E|-----------------------------------------------------------------------------------
B|-----------------------------------------------------------------------------------
G|-----------------------------------------------------------------------------------
D|-----------------------------------------------------------------------------------
A|-----------------------------------------------------------------5-----------------
E|--0--0--0--0--0--0--0--0--2--2--2--2--2--2--2--2---3/7--------7-----7--5--3--2-----

E|-----------------------------------------------------------------------------------------------------------------------------
B|-----------------------------------------------------------------------------------------------------------------------------
G|-----------------------------------------------------------------------------------------------------------------------------
D|-----------------------------------------------------------------------------------------------------------------------------
A|--------------5-----------------------------5--------------------------------5-----------------------------5-----------------
E|-----7-----7-----7--5--3--2---3/7--------7-----7--5--3--2---3/7-----------7-----7--5--3--2---3/7--------7-----7--5--3--2-----

E|-----------------------------------------------------------------
B|-----------------------------------------------------------------
G|-----------------------------------------------------------------
D|-----------------------------------------------------------------
A|-----------5--5--5--7--9--7--5--------------------5--------------
E|--7--7--7-----------------------7--5-----7--7--7-----7--5--3--2--

E|--------------------------------------------------2------------------------------
B|--------------------------------------------------------------------------------
G|--------------------------------------------------------------------------------
D|--------------------------------------------------------------------------------
A|--------------------------------------------------------------5-----------------
E|--0--0--0--0--0--0--0--0--2--2--2--2--2--2--2---3/7--------7-----7--5--3--2-----

E|---------------------------------------
B|-----------------------------------
G|-----------------------------------
D|--9--------9--12-9--7--5-----4-----
A|--9--------9--12-9--7--5-----4-----
E|--7--------7--10-7--5--3-----2-----




tabs and chords, guitar tabs, music transcription, music technology, deep learning, music information retrieval, transcribe into tabs & chords, chordify, music renditions, songsterr, reverbnation, tabulature, bollywood chords, ultimate guitar, yousician, guitar lessons, acoustic guitar, electric guitar, guitar tuner, 911 tabs