Guitar Tabs for Seven Deadly Sins Op1

verse 1
E|------0-|2-----27|5-7-0-3-|2-----02|320----0|20------|------3-|2-0-----|
B|0-2-3---|--------|--------|--------|---32-3-|--32-00-|----0---|----3-2-|
G|--------|--------|--------|--------|--------|-------2|0-2-----|--------|
D|--------|--------|--------|--------|--------|--------|--------|--------|
A|--------|--------|--------|--------|--------|--------|--------|--------|
E|--------|--------|--------|--------|--------|--------|--------|--------|


E|------0-|2-----27|5-7-0-3-|2-----02|320----0|20------|------3-|2---6-27|
B|0-2-3---|--------|--------|--------|---32-3-|--32-00-|----0---|--------|
G|--------|--------|--------|--------|--------|-------2|0-2-----|--------|
D|--------|--------|--------|--------|--------|--------|--------|--------|
A|--------|--------|--------|--------|--------|--------|--------|--------|
E|--------|--------|--------|--------|--------|--------|--------|--------|

verse 2
E|--------|--0---0-|--2--02-|3-6--02-|2-00----|--------|---22---|-----02-|
B|3-3-02-3|----23--|----3---|---3----|----3323|-32200--|-0------|----3---|
G|--------|--------|--------|--------|--------|------22|--------|--------|
D|--------|--------|--------|--------|--------|--------|--------|--------|
A|--------|--------|--------|--------|--------|--------|--------|--------|
E|--------|--------|--------|--------|--------|--------|--------|--------|

E|-200----|--------|---22---|-----02-|2-00----|--------|---22---|--------|
B|----3323|-32200--|-0------|----3---|----3323|-32200--|-0------|------02|
G|--------|------22|--------|--------|--------|------22|--------|--------|
D|--------|--------|--------|--------|--------|--------|--------|--------|
A|--------|--------|--------|--------|--------|--------|--------|--------|
E|--------|--------|--------|--------|--------|--------|--------|--------|

E|-----05-|2-------|-------3|-2-0----|-----05-|--2----0|2-----02|--00---2|
B|-3323---|--0-----|--0--02-|-----332|33323---|------3-|--0-3---|-----3--|
G|--------|---2----|-0-3----|--------|--------|--------|--------|--------|
D|--------|--------|--------|--------|--------|--------|--------|--------|
A|--------|--------|--------|--------|--------|--------|--------|--------|
E|--------|--------|--------|--------|--------|--------|--------|--------|

E|-------0|22--22--|
B|-----02-|--------|
G|--323---|--------|
D|--------|--------|
A|--------|--------|
E|--------|--------|

repeat verse 1

E|--------|--0---0-|--2--02-|-3--6--9|--7-----|
B|3-3-02-3|----23--|----3---|--------|--------|
G|--------|--------|--------|--------|--------|
D|--------|--------|--------|--------|--------|
A|--------|--------|--------|--------|--------|
E|--------|--------|--------|--------|--------|

Use manual mode to free up cursor. Paste any tab in acousterr tab maker and we'll play it !!!
tabs and chords, guitar tabs, music transcription, music technology, deep learning, music information retrieval, transcribe into tabs & chords, chordify, music renditions, songsterr, reverbnation, tabulature, bollywood chords, ultimate guitar, yousician, guitar lessons, acoustic guitar, electric guitar, guitar tuner, 911 tabs