Guitar Tabs for Set To Attack

(/) Slide Up  (\) Slide Down  (h) Hammer On  (p) Pull Off  (b) Bend (r) Release (v) Vibrato (x) Muted

Tabs for Song : Set to Attack 
BPM : 224
Rhythm part 1
E|--1--1--1--1--1--1--1--1--1--1--1--1--1--1--1--1--3--3--3--3--3--3--3--3--3--3--3--3--3--3--3--3--
B|--1--1--1--1--1--1--1--1--3--3--3--3--3--3--3--3--4--4--4--4--4--4--4--4--4--4--4--4--4--4--4--4--
G|--1--1--1--1--1--1--1--1--1--1--1--1--1--1--1--1--3--3--3--3--3--3--3--3--5--5--5--5--5--5--5--5--
D|--3--3--3--3--3--3--3--3--3--3--3--3--3--3--3--3--5--5--5--5--5--5--5--5--5--5--5--5--5--5--5--5--
A|--------------------------------------------------------------------------------------------------
E|--------------------------------------------------------------------------------------------------
Lead part 1
E|--------------------------------------------------
B|--------------------------------------------------
G|--------------------------------------------------
D|--------1--0-----------0--------------------------
A|-----3--------1-----1-----3-----------5--3--------
E|--1--------------------------3-----3--------4--3--
Lead part 2
E|--------
B|--13\11-
G|--13\12-
D|--------
A|--------
E|--------
Lead part 3
E|--------------------------------------------------
B|--------------------------------------------------
G|--------8--7-----------7--------------7-----------
D|-----10-------8-----8-----10-------8-----10-------
A|--8--------------------------10-------------11-10-
E|--------------------------------------------------
Lead part 4
E|--------------------------------------------------------------------------------------------------
B|--9--9--9--8--8--8--6--6--6--6--6--8--8--8--8--8--8--8--8--8--8--8--8--8--4--4--4--4--4--4--4--4--
G|--10-10-10-10-10-10-8--8--7--7--7--7--7--7--7--7--8--8--8--7--7--7--7--7--5--5--5--5--5--5--5--5--
D|--------------------------------------------------------------------------------------------------
A|--------------------------------------------------------------------------------------------------
E|--------------------------------------------------------------------------------------------------
Rhythm part 2
E|-----------------------------------------------------------------------------------------------------
B|-----------------------------------------------------------------------------------------------------
G|-----------------------------------------------------------------------------------------------------
D|--3--3--3--6--6--6--5--5-----------5--5--5--3--3--1--1--1--5--5--5--3--3-----------------------------
A|--------------------------1--1--1-----------------------------------------3--3--3--3--3---3/6--5-----
E|--------------------------------------------------------------------------------------------------6--
Lead part 5
E|-----------------------------------
B|--11/13\11/13\11-----3/-4\-3/-4\3--
G|--12/13\12/13\12-----3/-5\-3/-5\3--
D|-----------------------------------
A|-----------------------------------
E|-----------------------------------
Lead solo
E|--------------------------------------------------------------------------------------------------
B|--------------------------------------------------------------------------------------------------
G|--1--1--1--3--3--3--5--5--7--7--7--8--8--8--10-10-3--3--3--5--5--5--7--7--8--8--8--10-10-10-12-12-
D|--------------------------------------------------------------------------------------------------
A|--------------------------------------------------------------------------------------------------
E|--------------------------------------------------------------------------------------------------

E|--------------------------------------------------------------------------------------------------
B|--------------------------------------------------------------------------------------------------
G|--1--1--1--3--3--3--5--5--7--7--7--8--8--8--10-10-3--3--3--5--5--5--7--7--8--8--8--10-10-10-12-12-
D|--------------------------------------------------------------------------------------------------
A|--------------------------------------------------------------------------------------------------
E|--------------------------------------------------------------------------------------------------

E|--------------------------------------------------------------------------------------------------
B|--------------------------------------------------------------------------------------------------
G|--10-10-10-12-12-12-13-13-15-15-15-17-17-17-19-19-12-12-12-13-13-13-15-15-17-17-17-19-19-19-20-20-
D|--------------------------------------------------------------------------------------------------
A|--------------------------------------------------------------------------------------------------
E|--------------------------------------------------------------------------------------------------

E|--13-13-13----13-13-13----13-13----15-15-15----15-15-15-15----15----15----15-------------------------------------
B|--16-16-16----16-16-16----16-16----18-18-18----18-18-18-18----18----18----18----18p16-18b20-18b20-18p16-18p16----
G|--------------------------------------------------------------------------------------------------------------17-
D|-----------------------------------------------------------------------------------------------------------------
A|-----------------------------------------------------------------------------------------------------------------
E|-----------------------------------------------------------------------------------------------------------------
tabs and chords, guitar tabs, music transcription, music technology, deep learning, music information retrieval, transcribe into tabs & chords, chordify, music renditions, songsterr, reverbnation, tabulature, bollywood chords, ultimate guitar, yousician, guitar lessons, acoustic guitar, electric guitar, guitar tuner, 911 tabs