Mandolin Tabs for Será Amor

 (\) Slide Down  (v) vibrar a corda

Tabs for Song :  Será Amor

Song lyrics here:            Estrofes
E|--3v-2v-0v-2v-3v-2v-0--6--3v-2v-0v----0--2--3--5--3--2--0v----0--0--0--0--2--3--------------6--3v-2v-0v----0--2--
A|-----------------------------------6v----------------------2--------------------5v-3v-2v-2--------------6v-------
D|-----------------------------------------------------------------------------------------------------------------
G|-----------------------------------------------------------------------------------------------------------------
                                                                         Refrão
E|--3--5--3--2--0v----0--0--0--0--2--3-----------------------------------4v-4--2--0--4v-4--2--0--5v-5--4--2--5--4--
A|-----------------2--------------------5v-3v-2v-2--4v-2--4v-2--4--2--0--------------------------------------------
D|-----------------------------------------------------------------------------------------------------------------
G|-----------------------------------------------------------------------------------------------------------------

E|--2--5--4--2--4v-4--2--0--4v-4--2--0--5v-5--4--2--5--4--2--5--4--2---5\7--7--7--7--9--7--5v-4--------7--5--4v-4--
A|-----------------------------------------------------------------------------------------------4--4--------------
D|-----------------------------------------------------------------------------------------------------------------
G|-----------------------------------------------------------------------------------------------------------------
                                                           Passagem
E|--4--2--2--2-----2--0--0--0--3v-3--2--0--2v-2--3--5--3v-3--5--7--2v-2--3--5-0v-0--2v-3v-5v-3v-3--5--7--2v-2--3--
A|--------------6-------------------------------------------------------------------------------------------------
D|----------------------------------------------------------------------------------------------------------------
G|----------------------------------------------------------------------------------------------------------------
                   Estrofe - Refrão - Fim
E|--5--0v-2v-3v-5v-------------------0v-2v-4v-
A|--------------------------------------------
D|--------------------------------------------
G|--------------------------------------------

Song lyrics here
E|--
A|--
D|--
G|--

Now supports capo and sound effects for vibrato/pull-off/hammer/bends etc !!! Checkout help section
tabs and chords, guitar tabs, music transcription, music technology, deep learning, music information retrieval, transcribe into tabs & chords, chordify, music renditions, songsterr, reverbnation, tabulature, bollywood chords, ultimate guitar, yousician, guitar lessons, acoustic guitar, electric guitar, guitar tuner, 911 tabs