Guitar Tabs for Metallica - Seek & Destroy

E|--------------------------------------------------------------
B|--------------------------------------------------------------
G|---------7h-8p7-----------------------------------------5-----
D|---------------------------7h-8p7-----------------5--------7--
A|--0--0-----------------0-----------------0--8--7-----7--------
E|--------------------------------------------------------------

E|--------------------------------------------------------------
B|--------------------------------------------------------------
G|---------7h-8p7-----------------------------------------5-----
D|---------------------------7h-8p7-----------------5--------7--
A|--0--0-----------------0-----------------0--8--7-----7--------
E|--------------------------------------------------------------

E|--------------------------------------------------------------
B|--------------------------------------------------------------
G|---------7h-8p7-----------------------------------------5-----
D|---------------------------7h-8p7-----------------5--------7--
A|--0--0-----------------0-----------------0--8--7-----7--------
E|--------------------------------------------------------------

E|--------------------------------------------------------------
B|--------------------------------------------------------------
G|---------7h-8p7-----------------------------------------5-----
D|---------------------------7h-8p7-----------------5--------7--
A|--0--0-----------------0-----------------0--8--7-----7--------
E|--------------------------------------------------------------

E|--------------------------------------------------------------
B|--------------------------------------------------------------
G|---------7h-8p7-----------------------------------------5-----
D|---------------------------7h-8p7-----------------5--------7--
A|--0--0-----------------0-----------------0--8--7-----7--------
E|--------------------------------------------------------------

E|--------------------------------------------------------------
B|--------------------------------------------------------------
G|---------7h-8p7-----------------------------------------5-----
D|---------------------------7h-8p7-----------------5--------7--
A|--0--0-----------------0-----------------0--8--7-----7--------
E|--------------------------------------------------------------

E|--------------------------------------------------------------
B|--------------------------------------------------------------
G|---------7h-8p7-----------------------------------------5-----
D|---------------------------7h-8p7-----------------5--------7--
A|--0--0-----------------0-----------------0--8--7-----7--------
E|--------------------------------------------------------------

E|--------------------------------------------------------------------------------------------
B|--------------------------------------------------------------------------------------------
G|---------7h-8p7-----------------------------------------5-----------9--7-----7--------------
D|---------------------------7h-8p7-----------------5--------7--------------9-----9--8---7/5--
A|--0--0-----------------0-----------------0--8--7-----7--------------------------------------
E|--------------------------------------------------------------------------------------------
P.M|----------|        P.M|----------|
E|--------------------------------------------------
B|--------------------------------------------------
G|--------------------------------------------------
D|--------------5--7--5--7--------------------------
A|--------------5--7--5--7--------------7--5--------
E|--0--0--0--0--------------0--0--0--0--------7--6--
P.M|----------|         P.M|----------|
E|--------------------------------------------------
B|--------------------------------------------------
G|--------------------------------------------------
D|--------------5--7--5--7--------------------------
A|--------------5--7--5--7--------------7--5--------
E|--0--0--0--0--------------0--0--0--0--------7--6--
P.M|----------|         P.M|----------|
E|--------------------------------------------------
B|--------------------------------------------------
G|--------------------------------------------------
D|--------------5--7--5--7--------------------------
A|--------------5--7--5--7--------------7--5--------
E|--0--0--0--0--------------0--0--0--0--------7--6--
P.M|----------|         P.M|----------|
E|--------------------------------------------------
B|--------------------------------------------------
G|--------------------------------------------------
D|--------------5--7--5--7--------------------------
A|--------------5--7--5--7--------------7--5--------
E|--0--0--0--0--------------0--0--0--0--------7--6--
P.M|----------|         P.M|----------|
E|--------------------------------------------------
B|--------------------------------------------------
G|--------------------------------------------------
D|--------------5--7--5--7--------------------------
A|--------------5--7--5--7--------------7--5--------
E|--0--0--0--0--------------0--0--0--0--------7--6--
P.M|----------|         P.M|----------|
E|--------------------------------------------------
B|--------------------------------------------------
G|--------------------------------------------------
D|--------------5--7--5--7--------------------------
A|--------------5--7--5--7--------------7--5--------
E|--0--0--0--0--------------0--0--0--0--------7--6--
P.M|----------|          P.M|----------|
E|--------------------------------------------------
B|--------------------------------------------------
G|--------------------------------------------------
D|--------------5--7--5--7--------------------------
A|--------------5--7--5--7--------------7--5--------
E|--0--0--0--0--------------0--0--0--0--------7--6--
P.M|----------|          P.M|----------|
E|--------------------------------------------------
B|--------------------------------------------------
G|--------------------------------------------------
D|--------------5--7--5--7--------------------------
A|--------------5--7--5--7--------------7--5--------
E|--0--0--0--0--------------0--0--0--0--------7--6--
P.M|----------------------------------------|
E|--------------------------------------------------
B|--------------------------------------------------
G|--------------------------------------------------
D|--------------------------------------------5-----
A|-----------------------------------------------7--
E|--0--0--0--0--0--0--0--0--0--0--0--0--7--6--------
P.M|----------------------------------------|
E|--------------------------------------------------
B|--------------------------------------------------
G|--------------------------------------------------
D|--------------------------------------------5-----
A|-----------------------------------------------7--
E|--0--0--0--0--0--0--0--0--0--0--0--0--7--6--------
P.M|----------------------------------------|
E|--------------------------------------------------
B|--------------------------------------------------
G|--------------------------------------------------
D|--------------------------------------------5-----
A|-----------------------------------------------7--
E|--0--0--0--0--0--0--0--0--0--0--0--0--7--6--------
P.M|----------------------------------------|
E|--------------------------------------------------
B|--------------------------------------------------
G|--------------------------------------------------
D|--------------------------------------------5-----
A|-----------------------------------------------7--
E|--0--0--0--0--0--0--0--0--0--0--0--0--7--6--------
P.M|----------------------------------------|
E|--------------------------------------------------
B|--------------------------------------------------
G|--------------------------------------------------
D|--------------------------------------------5-----
A|-----------------------------------------------7--
E|--0--0--0--0--0--0--0--0--0--0--0--0--7--6--------
P.M|----------------------------------------|
E|--------------------------------------------------
B|--------------------------------------------------
G|--------------------------------------------------
D|--------------------------------------------5-----
A|-----------------------------------------------7--
E|--0--0--0--0--0--0--0--0--0--0--0--0--7--6--------
P.M|----------------------------------------|
E|-----------------------------------------------------
B|-----------------------------------------------------
G|-----------------------------------------------------
D|--------------------------------------------5--------
A|-----------------------------------------------7-----
E|--0--0--0--0--0--0--0--0--0--0--0--0--7--6-----------
   P.M|--------|           P.M|--------|           P.M|--------|
E|--------------------------------------------------------------------------
B|--------------------------------------------------------------------------
G|--5-----------5--7--5-----5-----------5--7--5-----5-----------5--7--5-----
D|--5-----------5--7--5-----5-----------5--7--5-----5-----------5--7--5-----
A|-----0--0--0-----------------0--0--0-----------------0--0--0--------------
E|--------------------------------------------------------------------------

E|--------------------------
B|--------------------------
G|--7--5--------------------
D|--------7--6--5-----------
A|-----------------7--6--5--
E|--------------------------
   P.M|--------|           P.M|--------|           P.M|--------|
E|--------------------------------------------------------------------------
B|--------------------------------------------------------------------------
G|--5-----------5--7--5-----5-----------5--7--5-----5-----------5--7--5-----
D|--5-----------5--7--5-----5-----------5--7--5-----5-----------5--7--5-----
A|-----0--0--0-----------------0--0--0-----------------0--0--0--------------
E|--------------------------------------------------------------------------

E|--------------------------------------------------
B|--------------------------------------------------
G|--9--7-----7--------------9--7-----7--------------
D|--------9-----9--8---7/5--------9-----9--8---7/5--
A|--------------------------------------------------
E|--------------------------------------------------
                                          P.M|-------------------------------------------|
E|-----------------------------------------------------------------------------------------
B|-----------------------------------------------------------------------------------------
G|-----------------------------------------------------------------------------------------
D|--12-------------11----------10----------9-----------------------------------------------
A|--10-------------9-----------8-----------7--0--0--0--0--0--0--0--0--0--0--0--0--0--0--0--
E|-----------------------------------------------------------------------------------------
                                          P.M|-------------------------------------------|
E|-----------------------------------------------------------------------------------------
B|-----------------------------------------------------------------------------------------
G|-----------------------------------------------------------------------------------------
D|--12-------------11----------10----------9-----------------------------------------------
A|--10-------------9-----------8-----------7--0--0--0--0--0--0--0--0--0--0--0--0--0--0--0--
E|-----------------------------------------------------------------------------------------
                                          P.M|-------------------------------------------|
E|-----------------------------------------------------------------------------------------
B|-----------------------------------------------------------------------------------------
G|-----------------------------------------------------------------------------------------
D|--12-------------11----------10----------9-----------------------------------------------
A|--10-------------9-----------8-----------7--0--0--0--0--0--0--0--0--0--0--0--0--0--0--0--
E|-----------------------------------------------------------------------------------------
                                          P.M|-------------------------------------------|
E|-----------------------------------------------------------------------------------------
B|-----------------------------------------------------------------------------------------
G|-----------------------------------------------------------------------------------------
D|--12-------------11----------10----------9-----------------------------------------------
A|--10-------------9-----------8-----------7--0--0--0--0--0--0--0--0--0--0--0--0--0--0--0--
E|-----------------------------------------------------------------------------------------

E|--------------------------------------------------
B|--------------------------------------------------
G|--------------------------------------------------
D|--------------5--7--5--7--------------------------
A|--------------5--7--5--7--------------7--5--------
E|--0--0--0--0--------------0--0--0--0--------7--6--
P.M|----------|         P.M|----------|
E|--------------------------------------------------
B|--------------------------------------------------
G|--------------------------------------------------
D|--------------5--7--5--7--------------------------
A|--------------5--7--5--7--------------7--5--------
E|--0--0--0--0--------------0--0--0--0--------7--6--
P.M|----------|         P.M|----------|
E|--------------------------------------------------
B|--------------------------------------------------
G|--------------------------------------------------
D|--------------5--7--5--7--------------------------
A|--------------5--7--5--7--------------7--5--------
E|--0--0--0--0--------------0--0--0--0--------7--6--
P.M|----------|         P.M|----------|
E|--------------------------------------------------
B|--------------------------------------------------
G|--------------------------------------------------
D|--------------5--7--5--7--------------------------
A|--------------5--7--5--7--------------7--5--------
E|--0--0--0--0--------------0--0--0--0--------7--6--
P.M|----------|         P.M|----------|
E|--------------------------------------------------
B|--------------------------------------------------
G|--------------------------------------------------
D|--------------5--7--5--7--------------------------
A|--------------5--7--5--7--------------7--5--------
E|--0--0--0--0--------------0--0--0--0--------7--6--
P.M|----------|         P.M|----------|
E|--------------------------------------------------
B|--------------------------------------------------
G|--------------------------------------------------
D|--------------5--7--5--7--------------------------
A|--------------5--7--5--7--------------7--5--------
E|--0--0--0--0--------------0--0--0--0--------7--6--
P.M|----------|          P.M|----------|
E|--------------------------------------------------
B|--------------------------------------------------
G|--------------------------------------------------
D|--------------5--7--5--7--------------------------
A|--------------5--7--5--7--------------7--5--------
E|--0--0--0--0--------------0--0--0--0--------7--6--
P.M|----------|          P.M|----------|
E|--------------------------------------------------
B|--------------------------------------------------
G|--------------------------------------------------
D|--------------5--7--5--7--------------------------
A|--------------5--7--5--7--------------7--5--------
E|--0--0--0--0--------------0--0--0--0--------7--6--
P.M|----------------------------------------|
E|--------------------------------------------------
B|--------------------------------------------------
G|--------------------------------------------------
D|--------------------------------------------5-----
A|-----------------------------------------------7--
E|--0--0--0--0--0--0--0--0--0--0--0--0--7--6--------
P.M|----------------------------------------|
E|--------------------------------------------------
B|--------------------------------------------------
G|--------------------------------------------------
D|--------------------------------------------5-----
A|-----------------------------------------------7--
E|--0--0--0--0--0--0--0--0--0--0--0--0--7--6--------
P.M|----------------------------------------|
E|--------------------------------------------------
B|--------------------------------------------------
G|--------------------------------------------------
D|--------------------------------------------5-----
A|-----------------------------------------------7--
E|--0--0--0--0--0--0--0--0--0--0--0--0--7--6--------
P.M|----------------------------------------|
E|--------------------------------------------------
B|--------------------------------------------------
G|--------------------------------------------------
D|--------------------------------------------5-----
A|-----------------------------------------------7--
E|--0--0--0--0--0--0--0--0--0--0--0--0--7--6--------
P.M|----------------------------------------|
E|--------------------------------------------------
B|--------------------------------------------------
G|--------------------------------------------------
D|--------------------------------------------5-----
A|-----------------------------------------------7--
E|--0--0--0--0--0--0--0--0--0--0--0--0--7--6--------
P.M|----------------------------------------|
E|--------------------------------------------------
B|--------------------------------------------------
G|--------------------------------------------------
D|--------------------------------------------5-----
A|-----------------------------------------------7--
E|--0--0--0--0--0--0--0--0--0--0--0--0--7--6--------
P.M|----------------------------------------|
E|-----------------------------------------------------
B|-----------------------------------------------------
G|-----------------------------------------------------
D|--------------------------------------------5--------
A|-----------------------------------------------7-----
E|--0--0--0--0--0--0--0--0--0--0--0--0--7--6-----------
   P.M|--------|          P.M|--------|            P.M|--------|
E|--------------------------------------------------------------------------
B|--------------------------------------------------------------------------
G|--5-----------5--7--5-----5-----------5--7--5-----5-----------5--7--5-----
D|--5-----------5--7--5-----5-----------5--7--5-----5-----------5--7--5-----
A|-----0--0--0-----------------0--0--0-----------------0--0--0--------------
E|--------------------------------------------------------------------------

E|--------------------------
B|--------------------------
G|--7--5--------------------
D|--------7--6--5-----------
A|-----------------7--6--5--
E|--------------------------
   P.M|--------|           P.M|--------|           P.M|--------|
E|--------------------------------------------------------------------------
B|--------------------------------------------------------------------------
G|--5-----------5--7--5-----5-----------5--7--5-----5-----------5--7--5-----
D|--5-----------5--7--5-----5-----------5--7--5-----5-----------5--7--5-----
A|-----0--0--0-----------------0--0--0-----------------0--0--0--------------
E|--------------------------------------------------------------------------

E|--------------------------
B|--------------------------
G|--9--7-----7--------------
D|--------9-----9--8---7/5--
A|--------------------------
E|--------------------------
                                          P.M|-------------------------------------------|
E|-----------------------------------------------------------------------------------------
B|-----------------------------------------------------------------------------------------
G|-----------------------------------------------------------------------------------------
D|--12-------------11----------10----------9-----------------------------------------------
A|--10-------------9-----------8-----------7--0--0--0--0--0--0--0--0--0--0--0--0--0--0--0--
E|-----------------------------------------------------------------------------------------
                                          P.M|-------------------------------------------|
E|-----------------------------------------------------------------------------------------
B|-----------------------------------------------------------------------------------------
G|-----------------------------------------------------------------------------------------
D|--12-------------11----------10----------9-----------------------------------------------
A|--10-------------9-----------8-----------7--0--0--0--0--0--0--0--0--0--0--0--0--0--0--0--
E|-----------------------------------------------------------------------------------------
                                          P.M|-------------------------------------------|
E|-----------------------------------------------------------------------------------------
B|-----------------------------------------------------------------------------------------
G|-----------------------------------------------------------------------------------------
D|--12-------------11----------10----------9-----------------------------------------------
A|--10-------------9-----------8-----------7--0--0--0--0--0--0--0--0--0--0--0--0--0--0--0--
E|-----------------------------------------------------------------------------------------
                                          P.M|-------------------------------------------|
E|-----------------------------------------------------------------------------------------
B|-----------------------------------------------------------------------------------------
G|-----------------------------------------------------------------------------------------
D|--12-------------11----------10----------9--------------------9--------------------------
A|--10-------------9-----------8-----------7--------------------7--------------------------
E|-----------------------------------------------------------------------------------------
Bridge
E|--------------------------------------------------------------------------
B|--------------------------------------------------------------------------
G|--------------------------5-----------------------4-----------------------
D|--5--------7--------7-----5--------7--------7-----4--------7---------7/0--
A|-----0--0-----0--0-----0-----0--0-----0--0-----0-----0--0-----0--0--------
E|--------------------------------------------------------------------------

E|--------------------------
B|--------------------------
G|--------------------------
D|-----------3--2--0--------
A|--3--2--0-----------3--0--
E|--------------------------

E|--------------------------------------------------------------------------
B|--------------------------------------------------------------------------
G|--------------------------5-----------------------4-----------------------
D|--5--------7--------7-----5--------7--------7-----4--------7---------7/0--
A|-----0--0-----0--0-----0-----0--0-----0--0-----0-----0--0-----0--0--------
E|--------------------------------------------------------------------------

E|--------------------------
B|--------------------------
G|--------------------------
D|-----------3--2--0--------
A|--3--2--0-----------3--0--
E|--------------------------

E|--------------------------------------------------------------------------
B|--------------------------------------------------------------------------
G|--------------------------5-----------------------4-----------------------
D|--5--------7--------7-----5--------7--------7-----4--------7---------7/0--
A|-----0--0-----0--0-----0-----0--0-----0--0-----0-----0--0-----0--0--------
E|--------------------------------------------------------------------------

E|--------------------------
B|--------------------------
G|--------------------------
D|-----------3--2--0--------
A|--3--2--0-----------3--0--
E|--------------------------

E|--------------------------------------------------------------------------
B|--------------------------------------------------------------------------
G|--------------------------5-----------------------4-----------------------
D|--5--------7--------7-----5--------7--------7-----4--------7---------7/0--
A|-----0--0-----0--0-----0-----0--0-----0--0-----0-----0--0-----0--0--------
E|--------------------------------------------------------------------------

E|--------------------------
B|--------------------------
G|--------------------------
D|-----------3--2--0--------
A|--3--2--0-----------3--0--
E|--------------------------

E|--------------------------------------------
B|--------------------------------------------
G|--------------------------------------------
D|--12-------------11----------10----------9--
A|--10-------------9-----------8-----------7--
E|--------------------------------------------
Solo
E|--------12----15p12----12-15p12-17p12-15p12----12-15p12-17p12-15p12----12----12----------------
B|--12/15-------------12----------------------15----------------------15----15----15v------------
G|-----------------------------------------------------------------------------------------------
D|-----------------------------------------------------------------------------------------------
A|-----------------------------------------------------------------------------------------------
E|-----------------------------------------------------------------------------------------------

E|--------7-----7--7--10p7-----7--7--------------------------------------------
B|--------------------------10-------10p7--10p7--------------------------------
G|-----------------------------------------------9--7-----7--9---9p7-----------
D|-----------------------------------------------------9--------------9v-------
A|-----------------------------------------------------------------------------
E|-----------------------------------------------------------------------------
Full bend                               Full bend
E|--17-------------16-15-14-------------------------------
B|--------------15----------15-14-------15----------------
G|-----------15-------------------16----------------------
D|-----------------------------------17-------------------
A|--------------------------------------------------------
E|--------------------------------------------------------

E|--------20-20-22-20-18-22-19-19-21-21-17-15-19-16-14-14-17-14-12-16-12-11-14-12/11--9/7--10p7-----7--10p7--------
B|--22/0-----------------------------------------------------------------------------------------10----------10-7--
G|-----------------------------------------------------------------------------------------------------------------
D|-----------------------------------------------------------------------------------------------------------------
A|-----------------------------------------------------------------------------------------------------------------
E|-----------------------------------------------------------------------------------------------------------------

E|-----------------------------------------------------
B|--10p7-----------7-----------------------------------
G|--------9--7--9-----9--9---9p7--9--7------7p0v-------
D|--------------------------------------9--------------
A|-----------------------------------------------------
E|-----------------------------------------------------

E|--------------------------------------------------------------------------------------------------
B|--------------------------------------------------------------------------------7--10p7-----------
G|-----------------------------------------7--9--9---9p7--9--7--7--7-----7--9--9-----------9--7-----
D|-----------------7---9p7------7h9--9--------------------------------9--------------------------9--
A|-----------5--9-----------9-----------------------------------------------------------------------
E|--5--5--7-----------------------------------------------------------------------------------------

E|--------------------------------12----------------12-------------------12-------------12----12-15p12----------------------------------------------------
B|--------------------------12-15----15p12----12-15----15p12-12-15----15----15p12-15-15----15----------15-12----12-15p12----------------------------------
G|-----7--9--9---9p7---9/14----------------14----------------------------------------------------------------14----------14-12----12-14p12----------------
D|-----------------------------------------------------------------------------------------------------------------------------14----------14-12----------
A|-----------------------------------------------------------------------------------------------------------------------------------------------14-12----
E|-----------------------------------------------------------------------------------------------------------------------------------------------------15-

E|--------------------------------------------------------------------------12----12----
B|--------------------------------------------------------12----12-15-12-15----15-------
G|--------------------------------------12----12-14-12-14----14-------------------------
D|--------------------12----12-14-12-14----14-------------------------------------------
A|--------12-14-12-14----14-------------------------------------------------------------
E|-----15-------------------------------------------------------------------------------

E|--15p12-------------------------------------
B|--------15-12/11-12-15p12-------------------
G|--------------------------14-12p-0/9--------
D|--------------------------------------------
A|--------------------------------------------
E|--------------------------------------------

E|--------------------------------------------------------------------------
B|--------------------------------------------------------------------------
G|--------------------------------------------------------------------------
D|--------------------------------------------------2-----------------------
A|-----------3--2--0-----------------3--2--0--------0-----------------------
E|--3--2--0-----------3--2--3--2--0-----------3--2--------------------------

E|--------------------------------------------------------------
B|--------------------------------------------------------------
G|---------7h-8p7-----------------------------------------5-----
D|---------------------------7h-8p7-----------------5--------7--
A|--0--0-----------------0-----------------0--8--7-----7--------
E|--------------------------------------------------------------

E|--------------------------------------------------------------
B|--------------------------------------------------------------
G|---------7h-8p7-----------------------------------------5-----
D|---------------------------7h-8p7-----------------5--------7--
A|--0--0-----------------0-----------------0--8--7-----7--------
E|--------------------------------------------------------------

E|--------------------------------------------------------------
B|--------------------------------------------------------------
G|---------7h-8p7-----------------------------------------5-----
D|---------------------------7h-8p7-----------------5--------7--
A|--0--0-----------------0-----------------0--8--7-----7--------
E|--------------------------------------------------------------

E|--------------------------------------------------------------
B|--------------------------------------------------------------
G|---------7h-8p7-----------------------------------------5-----
D|---------------------------7h-8p7-----------------5--------7--
A|--0--0-----------------0-----------------0--8--7-----7--------
E|--------------------------------------------------------------

E|--------------------------------------------------------------
B|--------------------------------------------------------------
G|---------7h-8p7-----------------------------------------5-----
D|---------------------------7h-8p7-----------------5--------7--
A|--0--0-----------------0-----------------0--8--7-----7--------
E|--------------------------------------------------------------

E|--------------------------------------------------------------
B|--------------------------------------------------------------
G|---------7h-8p7-----------------------------------------5-----
D|---------------------------7h-8p7-----------------5--------7--
A|--0--0-----------------0-----------------0--8--7-----7--------
E|--------------------------------------------------------------

E|--------------------------------------------------------------
B|--------------------------------------------------------------
G|---------7h-8p7-----------------------------------------5-----
D|---------------------------7h-8p7-----------------5--------7--
A|--0--0-----------------0-----------------0--8--7-----7--------
E|--------------------------------------------------------------

E|--------------------------------------------------------------
B|--------------------------------------------------------------
G|---------7h-8p7-----------------------------------------5-----
D|---------------------------7h-8p7-----------------5--------7--
A|--0--0-----------------0-----------------0--8--7-----7--------
E|--------------------------------------------------------------

E|--------------------------
B|--------------------------
G|--9--7-----7--------------
D|--------9-----9--8---7/5--
A|--------------------------
E|--------------------------

P.M|----------|        P.M|----------|
E|--------------------------------------------------
B|--------------------------------------------------
G|--------------------------------------------------
D|--------------5--7--5--7--------------------------
A|--------------5--7--5--7--------------7--5--------
E|--0--0--0--0--------------0--0--0--0--------7--6--
P.M|----------|         P.M|----------|
E|--------------------------------------------------
B|--------------------------------------------------
G|--------------------------------------------------
D|--------------5--7--5--7--------------------------
A|--------------5--7--5--7--------------7--5--------
E|--0--0--0--0--------------0--0--0--0--------7--6--
P.M|----------|         P.M|----------|
E|--------------------------------------------------
B|--------------------------------------------------
G|--------------------------------------------------
D|--------------5--7--5--7--------------------------
A|--------------5--7--5--7--------------7--5--------
E|--0--0--0--0--------------0--0--0--0--------7--6--
P.M|----------|         P.M|----------|
E|--------------------------------------------------
B|--------------------------------------------------
G|--------------------------------------------------
D|--------------5--7--5--7--------------------------
A|--------------5--7--5--7--------------7--5--------
E|--0--0--0--0--------------0--0--0--0--------7--6--
P.M|----------|         P.M|----------|
E|--------------------------------------------------
B|--------------------------------------------------
G|--------------------------------------------------
D|--------------5--7--5--7--------------------------
A|--------------5--7--5--7--------------7--5--------
E|--0--0--0--0--------------0--0--0--0--------7--6--
P.M|----------|         P.M|----------|
E|--------------------------------------------------
B|--------------------------------------------------
G|--------------------------------------------------
D|--------------5--7--5--7--------------------------
A|--------------5--7--5--7--------------7--5--------
E|--0--0--0--0--------------0--0--0--0--------7--6--
P.M|----------|          P.M|----------|
E|--------------------------------------------------
B|--------------------------------------------------
G|--------------------------------------------------
D|--------------5--7--5--7--------------------------
A|--------------5--7--5--7--------------7--5--------
E|--0--0--0--0--------------0--0--0--0--------7--6--
P.M|----------|          P.M|----------|
E|--------------------------------------------------
B|--------------------------------------------------
G|--------------------------------------------------
D|--------------5--7--5--7--------------------------
A|--------------5--7--5--7--------------7--5--------
E|--0--0--0--0--------------0--0--0--0--------7--6--
P.M|----------------------------------------|
E|--------------------------------------------------
B|--------------------------------------------------
G|--------------------------------------------------
D|--------------------------------------------5-----
A|-----------------------------------------------7--
E|--0--0--0--0--0--0--0--0--0--0--0--0--7--6--------
P.M|----------------------------------------|
E|--------------------------------------------------
B|--------------------------------------------------
G|--------------------------------------------------
D|--------------------------------------------5-----
A|-----------------------------------------------7--
E|--0--0--0--0--0--0--0--0--0--0--0--0--7--6--------
P.M|----------------------------------------|
E|--------------------------------------------------
B|--------------------------------------------------
G|--------------------------------------------------
D|--------------------------------------------5-----
A|-----------------------------------------------7--
E|--0--0--0--0--0--0--0--0--0--0--0--0--7--6--------
P.M|----------------------------------------|
E|--------------------------------------------------
B|--------------------------------------------------
G|--------------------------------------------------
D|--------------------------------------------5-----
A|-----------------------------------------------7--
E|--0--0--0--0--0--0--0--0--0--0--0--0--7--6--------
P.M|----------------------------------------|
E|--------------------------------------------------
B|--------------------------------------------------
G|--------------------------------------------------
D|--------------------------------------------5-----
A|-----------------------------------------------7--
E|--0--0--0--0--0--0--0--0--0--0--0--0--7--6--------
P.M|----------------------------------------|
E|--------------------------------------------------
B|--------------------------------------------------
G|--------------------------------------------------
D|--------------------------------------------5-----
A|-----------------------------------------------7--
E|--0--0--0--0--0--0--0--0--0--0--0--0--7--6--------
P.M|----------------------------------------|
E|-----------------------------------------------------
B|-----------------------------------------------------
G|-----------------------------------------------------
D|--------------------------------------------5--------
A|-----------------------------------------------7-----
E|--0--0--0--0--0--0--0--0--0--0--0--0--7--6-----------
   P.M|--------|           P.M|--------|           P.M|--------|
E|--------------------------------------------------------------------------
B|--------------------------------------------------------------------------
G|--5-----------5--7--5-----5-----------5--7--5-----5-----------5--7--5-----
D|--5-----------5--7--5-----5-----------5--7--5-----5-----------5--7--5-----
A|-----0--0--0-----------------0--0--0-----------------0--0--0--------------
E|--------------------------------------------------------------------------

E|--------------------------
B|--------------------------
G|--7--5--------------------
D|--------7--6--5-----------
A|-----------------7--6--5--
E|--------------------------
   P.M|--------|           P.M|--------|           P.M|--------|
E|--------------------------------------------------------------------------
B|--------------------------------------------------------------------------
G|--5-----------5--7--5-----5-----------5--7--5-----5-----------5--7--5-----
D|--5-----------5--7--5-----5-----------5--7--5-----5-----------5--7--5-----
A|-----0--0--0-----------------0--0--0-----------------0--0--0--------------
E|--------------------------------------------------------------------------

E|--------------------------------------------------
B|--------------------------------------------------
G|--9--7-----7--------------9--7-----7--------------
D|--------9-----9--8---7/5--------9-----9--8---7/5--
A|--------------------------------------------------
E|--------------------------------------------------

                                          P.M|-------------------------------------------|
E|-----------------------------------------------------------------------------------------
B|-----------------------------------------------------------------------------------------
G|-----------------------------------------------------------------------------------------
D|--12-------------11----------10----------9-----------------------------------------------
A|--10-------------9-----------8-----------7--0--0--0--0--0--0--0--0--0--0--0--0--0--0--0--
E|-----------------------------------------------------------------------------------------
                                          P.M|-------------------------------------------|
E|-----------------------------------------------------------------------------------------
B|-----------------------------------------------------------------------------------------
G|-----------------------------------------------------------------------------------------
D|--12-------------11----------10----------9-----------------------------------------------
A|--10-------------9-----------8-----------7--0--0--0--0--0--0--0--0--0--0--0--0--0--0--0--
E|-----------------------------------------------------------------------------------------
                                          P.M|-------------------------------------------|
E|-----------------------------------------------------------------------------------------
B|-----------------------------------------------------------------------------------------
G|-----------------------------------------------------------------------------------------
D|--12-------------11----------10----------9-----------------------------------------------
A|--10-------------9-----------8-----------7--0--0--0--0--0--0--0--0--0--0--0--0--0--0--0--
E|-----------------------------------------------------------------------------------------

E|--------------------------------------------------------------------------------------
B|--------------------------------------------------------------------------------------
G|--------------------------------------------------------------------------------------
D|--12-------------11----------10----------9--------------------------------------------
A|--10-------------9-----------8-----------7--------------------------------------------
E|--------------------------------------------0--0--0--0--0--0--0--0--0--0--0--0--0--0--
Outro
E|--------------------------------------------------------------------------------------------------
B|--------------------------------------------------------------------------------------------------
G|--------------------------------------------------------------------------------------------------
D|--12-11-------11-10-------10-9--------------------12-11-------11-7--------7--9--------------------
A|--10-9--------9--8--------8--7--------------------10-9--------9--5--------5--7--------------------
E|--------0--0--------0--0--------0--0--0--0--0--0--------0--0--------0--0--------0--0--0--0--0--0--

E|--------------------------------------------------------------------------------------------------
B|--------------------------------------------------------------------------------------------------
G|--------------------------------------------------------------------------------------------------
D|--12-11-------11-10-------10-9--------------------12-11-------11-7--------7--9--------------------
A|--10-9--------9--8--------8--7--------------------10-9--------9--5--------5--7--------------------
E|--------0--0--------0--0--------0--0--0--0--0--0--------0--0--------0--0--------0--0--0--0--0--0--

E|--------------------------------------------------------------------------------------------------
B|--------------------------------------------------------------------------------------------------
G|--------------------------------------------------------------------------------------------------
D|--12-11-------11-10-------10-9--------------------12-11-------11-7--------7--9--------------------
A|--10-9--------9--8--------8--7--------------------10-9--------9--5--------5--7--------------------
E|--------0--0--------0--0--------0--0--0--0--0--0--------0--0--------0--0--------0--0--0--0--0--0--

E|-----------------------------------------------------------------------------------------------
B|-----------------------------------------------------------------------------------------------
G|-----------------------------------------------------------------------------------------------
D|--12-11-------11-10-------10-9--------------------12-11-------11-7--------7--9-----------------
A|--10-9--------9--8--------8--7--------------------10-9--------9--5--------5--7-----------------
E|--------0--0--------0--0--------0--0--0--0--0--0--------0--0--------0--0--------0--0--0--0--0--

E|-----------------------------------------------------
B|-----------------------------------------------------
G|-----------------------------------------------------
D|-----------2-----------------------------------------
A|-----------2--------5--------4--------5---------7/5--
E|--12/0--0-----0--0--3--0--0--2--0--0--3--0--0---5/3--

E|--------------------------------------------------
B|--------------------------------------------------
G|--------------------------------------------------
D|--------2-----------------------------------------
A|--------2--------5--------4--------5---------7/5--
E|--0--0-----0--0--3--0--0--2--0--0--3--0--0---5/3--

E|--------------------------------------------------
B|--------------------------------------------------
G|--------------------------------------------------
D|--------2-----------------------------------------
A|--------2--------5--------4--------5---------7/5--
E|--0--0-----0--0--3--0--0--2--0--0--3--0--0---5/3--

E|--------------------------------------------------
B|--------------------------------------------------
G|--------------------------------------------------
D|--------2-----------------------------------------
A|--------2--------5--------4--------5---------7/5--
E|--0--0-----0--0--3--0--0--2--0--0--3--0--0---5/3--

E|--------------------------------------------------
B|--------------------------------------------------
G|--------------------------------------------------
D|--------2-----------------------------------------
A|--------2--------5--------4--------5---------7/5--
E|--0--0-----0--0--3--0--0--2--0--0--3--0--0---5/3--

E|--------------------------------------------------
B|--------------------------------------------------
G|--------------------------------------------------
D|--------2-----------------------------------------
A|--------2--------5--------4--------5---------7/5--
E|--0--0-----0--0--3--0--0--2--0--0--3--0--0---5/3--

E|--------------------------------------------------------------------------------
B|--------------------------------------------------------------------------------
G|--------------------------------------------------------9--7-----7--------------
D|--------2-----------------------------------------------------9-----9--8---7/5--
A|--------2--------5--------4--------5---------7/5--------------------------------
E|--0--0-----0--0--3--0--0--2--0--0--3--0--0---5/3--0--0--------------------------
                                                   P.M|-----------|
E|--------------------------------------------------------------------------------
B|--------------------------------------------------------------------------------
G|--9--7-----7--------------9--7-----7--------------------------------------------
D|--------9-----9--8---7/5--------9-----9--8---7/5-----------------12-------------
A|-----------------------------------------------------------------10-------------
E|-----------------------------------------------------0--0--0--0--0--------------








tabs and chords, guitar tabs, music transcription, music technology, deep learning, music information retrieval, transcribe into tabs & chords, chordify, music renditions, songsterr, reverbnation, tabulature, bollywood chords, ultimate guitar, yousician, guitar lessons, acoustic guitar, electric guitar, guitar tuner, 911 tabs