See You (lead Guitar) - Guitar Tabs

(/) Slide Up  (\) Slide Down  (h) Hammer On  (p) Pull Off  (b) Bend (r) Release (v) Vibrato (x) Muted

Capo On 2nd

Intro: Overdrive/Distortion Guitar (Every Power Chord Held Out)
You know what maybe it's not a life you choose,
Maybe it's the kind of life if you never really win you only lose,
Maybe our time is just about at an end,
But I'm telling you I'm not done till I'm done,
E|-----------------------------------------------------
B|-----------------------------------------------------
G|--------9-----4-----4-----------9-----4-----4-----4--
D|--4-----9-----4-----4-----4-----9-----4-----4-----4--
A|--4-----7-----2-----2-----4-----7-----2-----2-----2--
E|--2-----------------------2--------------------------

Transition 1: Overdrive/Distortion Guitar 
E|--------------------------------------------------------------------------------------------------
B|--------------------------------------------------------------------------------------------------
G|--------------------------------------------------4-----4--4--4--4--4--4--4-----4--4--4--4--4--4--
D|--4-----4--4--4--4--4--4--6-----6--6--6--6--6--6--4-----4--4--4--4--4--4--4-----4--4--4--4--4--4--
A|--4-----4--4--4--4--4--4--6-----6--6--6--6--6--6--2-----2--2--2--2--2--2--2-----2--2--2--2--2--2--
E|--2-----2--2--2--2--2--2--4-----4--4--4--4--4--4--------------------------------------------------

E|--------------------------------------------------------------------------------------------------
B|--------------------------------------------------------------------------------------------------
G|--------------------------------------------------4-----4--4--4--4--4--4--4-----4--4--4--4--4--4--
D|--4-----4--4--4--4--4--4--6-----6--6--6--6--6--6--4-----4--4--4--4--4--4--4-----4--4--4--4--4--4--
A|--4-----4--4--4--4--4--4--6-----6--6--6--6--6--6--2-----2--2--2--2--2--2--2-----2--2--2--2--2--2--
E|--2-----2--2--2--2--2--2--4-----4--4--4--4--4--4--------------------------------------------------

E|--------------------------------------------------------------------------------------------------
B|--------------------------------------------------------------------------------------------------
G|--------------------------------------------------4-----4--4--4--4--4--4--4-----4--4--4--4--4--4--
D|--4-----4--4--4--4--4--4--6-----6--6--6--6--6--6--4-----4--4--4--4--4--4--4-----4--4--4--4--4--4--
A|--4-----4--4--4--4--4--4--6-----6--6--6--6--6--6--2-----2--2--2--2--2--2--2-----2--2--2--2--2--2--
E|--2-----2--2--2--2--2--2--4-----4--4--4--4--4--4--------------------------------------------------

E|--------------------------------------------------------------------------------------------------
B|--------------------------------------------------------------------------------------------------
G|--------------------------------------------------4-----4--4--4--4--4--4--4-----4--4--4--4--4--4--
D|--4-----4--4--4--4--4--4--6-----6--6--6--6--6--6--4-----4--4--4--4--4--4--4-----4--4--4--4--4--4--
A|--4-----4--4--4--4--4--4--6-----6--6--6--6--6--6--2-----2--2--2--2--2--2--2-----2--2--2--2--2--2--
E|--2-----2--2--2--2--2--2--4-----4--4--4--4--4--4--------------------------------------------------

Verse 1: Overdrive Guitar (Blues-y)
They say it's not always about the destination,
But I just cannot seem to wait for this journey to be through,
E|-----------------------------------------------------------------------------------------------------
B|-----------------------------------------------------------------------------------------------------
G|-----------------------------------------------------------------------------------------------------
D|--------------------------9--9-----9-----11-9-----4--4-----4-----6--4-----4--4-----4-----7--6--4--6--
A|--4--4-----4-----6--4-----7--7-----7-----7--7-----2--2-----2-----2--2-----2--2-----2-----2--2--2--2--
E|--2--2-----2-----2--2--------------------------------------------------------------------------------
Oh I'd be lying if I said it's not been fun,
Yet every single thought I've had for so long has only been of you,
E|-----------------------------------------------------------------------------------------------------
B|-----------------------------------------------------------------------------------------------------
G|-----------------------------------------------------------------------------------------------------
D|--------------------------9--9-----9-----11-9-----4--4-----4-----6--4-----4--4-----4-----7--6--4--6--
A|--4--4-----4-----6--4-----7--7-----7-----7--7-----2--2-----2-----2--2-----2--2-----2-----2--2--2--2--
E|--2--2-----2-----2--2--------------------------------------------------------------------------------
You,
E|--------------------------------------------------------------------------------------------
B|--------------------------------------------------------------------------------------------
G|--------------------------------------------------------------------------------------------
D|--4--4-----4--4--4-----4--4--4-----4--4--4-----4--4--4-----4--4--4-----4--4--4-----4--4--4--
A|--4--4-----4--5--5-----5--6--6-----6--5--5-----5--4--4-----4--5--5-----5--6--6-----6--5--5--
E|--2--2-----2--2--2-----2--2--2-----2--2--2-----2--2--2-----2--2--2-----2--2--2-----2--2--2--

Pre-Chorus: Overdrive Guitar
Now I'm falling,
And I'm calling your name,
E|-----------------------------------------------------------------------------------------
B|-----------------------------------------------------------------------------------------
G|-----------------------------------------------------------------------------------------
D|--4--4-----4--4--4-----4--4--4-----4--4--4-----4--4--4-----4--4--4-----4--4--4-----4--4--
A|--4--4-----4--5--5-----5--6--6-----6--5--5-----5--4--4-----4--5--5-----5--6--6-----6--5--
E|--2--2-----2--2--2-----2--2--2-----2--2--2-----2--2--2-----2--2--2-----2--2--2-----2--2--

Chorus 1: Overdrive/Distortion Guitar
And I'm on my way,
E|--------------------------------------------------------------------------------------------------
B|--------------------------------------------------------------------------------------------------
G|--------------------------------------------------4-----4--4--4--4--4--4--4-----4--4--4--4--4--4--
D|--4-----4--4--4--4--4--4--6-----6--6--6--6--6--6--4-----4--4--4--4--4--4--4-----4--4--4--4--4--4--
A|--4-----4--4--4--4--4--4--6-----6--6--6--6--6--6--2-----2--2--2--2--2--2--2-----2--2--2--2--2--2--
E|--2-----2--2--2--2--2--2--4-----4--4--4--4--4--4--------------------------------------------------
I'll be there soon oh just you wait,
E|--------------------------------------------------------------------------------------------------
B|--------------------------------------------------------------------------------------------------
G|--------------------------------------------------4-----4--4--4--4--4--4--4-----4--4--4--4--4--4--
D|--4-----4--4--4--4--4--4--6-----6--6--6--6--6--6--4-----4--4--4--4--4--4--4-----4--4--4--4--4--4--
A|--4-----4--4--4--4--4--4--6-----6--6--6--6--6--6--2-----2--2--2--2--2--2--2-----2--2--2--2--2--2--
E|--2-----2--2--2--2--2--2--4-----4--4--4--4--4--4--------------------------------------------------
I've dreamed of this day after day after day after day for so damn long,
I don't know just what I'll do but I know I just can't wait,
To see you,
E|--------------------------------------------------=------------------------------
B|--------------------------------------------------------------------------------
G|--------------------------------------------------------------------------------
D|--4-----4--4--4--4--4--4--4-----4--4--4--4--4--4--4-----4--4--4--4--4--4--4-----
A|--4-----4--4--4--4--4--4--5-----5--5--5--5--5--5--6-----6--6--6--6--6--6--7-----
E|--2-----2--2--2--2--2--2--2-----2--2--2--2--2--2--2-----2--2--2--2--2--2--2-----

E|--------------------------------------------------------------------------------------------------
B|--------------------------------------------------------------------------------------------------
G|--4-----4--4--4--4--4--4--4--4--4--4--4--4--4--4--7-----7--7--7--7--7--7--7--7--7--7--7--7--7--7--
D|--4-----4--4--4--4--4--4--4--4--4--4--4--4--4--4--7-----7--7--7--7--7--7--7--7--7--7--7--7--7--7--
A|--2-----2--2--2--2--2--2--2--2--2--2--2--2--2--2--5-----5--5--5--5--5--5--5--5--5--5--5--5--5--5--
E|--------------------------------------------------------------------------------------------------

Transition 2: Overdrive/Distortion Guitar (Stacatto On Last Note)

E|--------------------------------------------------------------------------------------------------
B|--------------------------------------------------------------------------------------------------
G|--------------------------------------------------4-----4--4--4--4--4--4--4-----4--4--4--4--4--4--
D|--4-----4--4--4--4--4--4--6-----6--6--6--6--6--6--4-----4--4--4--4--4--4--4-----4--4--4--4--4--4--
A|--4-----4--4--4--4--4--4--6-----6--6--6--6--6--6--2-----2--2--2--2--2--2--2-----2--2--2--2--2--2--
E|--2-----2--2--2--2--2--2--4-----4--4--4--4--4--4--------------------------------------------------

E|-----------------------------------------------------
B|-----------------------------------------------------
G|--------------------------------------------------4--
D|--4-----4--4--4--4--4--4--6-----6--6--6--6--6--6--4--
A|--4-----4--4--4--4--4--4--6-----6--6--6--6--6--6--2--
E|--2-----2--2--2--2--2--2--4-----4--4--4--4--4--4-----

Verse 2: Overdrive Guitar (Blues-y)
I've made many mistakes in all my time,
Maybe one of them was too little of it spent with you,
E|-----------------------------------------------------------------------------------------------------
B|-----------------------------------------------------------------------------------------------------
G|-----------------------------------------------------------------------------------------------------
D|--------------------------9--9-----9-----11-9-----4--4-----4-----6--4-----4--4-----4-----7--6--4--6--
A|--4--4-----4-----6--4-----7--7-----7-----7--7-----2--2-----2-----2--2-----2--2-----2-----2--2--2--2--
E|--2--2-----2-----2--2--------------------------------------------------------------------------------
But I've changed so much since I've been gone I promise you now,
I'll see you again and I'll never let you go,
E|-----------------------------------------------------------------------------------------------------
B|-----------------------------------------------------------------------------------------------------
G|-----------------------------------------------------------------------------------------------------
D|--------------------------9--9-----9-----11-9-----4--4-----4-----6--4-----4--4-----4-----7--6--4--6--
A|--4--4-----4-----6--4-----7--7-----7-----7--7-----2--2-----2-----2--2-----2--2-----2-----2--2--2--2--
E|--2--2-----2-----2--2--------------------------------------------------------------------------------
You go,
E|--------------------------------------------------------------------------------------------
B|--------------------------------------------------------------------------------------------
G|--------------------------------------------------------------------------------------------
D|--4--4-----4--4--4-----4--4--4-----4--4--4-----4--4--4-----4--4--4-----4--4--4-----4--4--4--
A|--4--4-----4--5--5-----5--6--6-----6--5--5-----5--4--4-----4--5--5-----5--6--6-----6--5--5--
E|--2--2-----2--2--2-----2--2--2-----2--2--2-----2--2--2-----2--2--2-----2--2--2-----2--2--2--

Pre-Chorus: Overdrive Guitar
Now I'm falling,
And I'm calling your name,
E|-----------------------------------------------------------------------------------------
B|-----------------------------------------------------------------------------------------
G|-----------------------------------------------------------------------------------------
D|--4--4-----4--4--4-----4--4--4-----4--4--4-----4--4--4-----4--4--4-----4--4--4-----4--4--
A|--4--4-----4--5--5-----5--6--6-----6--5--5-----5--4--4-----4--5--5-----5--6--6-----6--5--
E|--2--2-----2--2--2-----2--2--2-----2--2--2-----2--2--2-----2--2--2-----2--2--2-----2--2--

Chorus 2: Overdrive/Distortion Guitar
And I'm on my way,
E|--------------------------------------------------------------------------------------------------
B|--------------------------------------------------------------------------------------------------
G|--------------------------------------------------4-----4--4--4--4--4--4--4-----4--4--4--4--4--4--
D|--4-----4--4--4--4--4--4--6-----6--6--6--6--6--6--4-----4--4--4--4--4--4--4-----4--4--4--4--4--4--
A|--4-----4--4--4--4--4--4--6-----6--6--6--6--6--6--2-----2--2--2--2--2--2--2-----2--2--2--2--2--2--
E|--2-----2--2--2--2--2--2--4-----4--4--4--4--4--4--------------------------------------------------
I'll be there soon oh just you wait,
E|--------------------------------------------------------------------------------------------------
B|--------------------------------------------------------------------------------------------------
G|--------------------------------------------------4-----4--4--4--4--4--4--4-----4--4--4--4--4--4--
D|--4-----4--4--4--4--4--4--6-----6--6--6--6--6--6--4-----4--4--4--4--4--4--4-----4--4--4--4--4--4--
A|--4-----4--4--4--4--4--4--6-----6--6--6--6--6--6--2-----2--2--2--2--2--2--2-----2--2--2--2--2--2--
E|--2-----2--2--2--2--2--2--4-----4--4--4--4--4--4--------------------------------------------------
I've dreamed of this day after day after day after day for so damn long,
I don't know just what I'll do but I know I just can't wait,
To see you,
E|--------------------------------------------------=------------------------------
B|--------------------------------------------------------------------------------
G|--------------------------------------------------------------------------------
D|--4-----4--4--4--4--4--4--4-----4--4--4--4--4--4--4-----4--4--4--4--4--4--4-----
A|--4-----4--4--4--4--4--4--5-----5--5--5--5--5--5--6-----6--6--6--6--6--6--7-----
E|--2-----2--2--2--2--2--2--2-----2--2--2--2--2--2--2-----2--2--2--2--2--2--2-----

E|--------------------------------------------------------------------------------------------------
B|--------------------------------------------------------------------------------------------------
G|--4-----4--4--4--4--4--4--4--4--4--4--4--4--4--4--7-----7--7--7--7--7--7--7--7--7--7--7--7--7--7--
D|--4-----4--4--4--4--4--4--4--4--4--4--4--4--4--4--7-----7--7--7--7--7--7--7--7--7--7--7--7--7--7--
A|--2-----2--2--2--2--2--2--2--2--2--2--2--2--2--2--5-----5--5--5--5--5--5--5--5--5--5--5--5--5--5--
E|--------------------------------------------------------------------------------------------------

Transition 3 Rhythm: Overdrive/Distortion Guitar 
E|--------------------------------------------------------------------------------------------------
B|--------------------------------------------------------------------------------------------------
G|--------------------------------------------------4-----4--4--4--4--4--4--4-----4--4--4--4--4--4--
D|--4-----4--4--4--4--4--4--6-----6--6--6--6--6--6--4-----4--4--4--4--4--4--4-----4--4--4--4--4--4--
A|--4-----4--4--4--4--4--4--6-----6--6--6--6--6--6--2-----2--2--2--2--2--2--2-----2--2--2--2--2--2--
E|--2-----2--2--2--2--2--2--4-----4--4--4--4--4--4--------------------------------------------------

E|--------------------------------------------------------------------------------------------------
B|--------------------------------------------------------------------------------------------------
G|--------------------------------------------------4-----4--4--4--4--4--4--4-----4--4--4--4--4--4--
D|--4-----4--4--4--4--4--4--6-----6--6--6--6--6--6--4-----4--4--4--4--4--4--4-----4--4--4--4--4--4--
A|--4-----4--4--4--4--4--4--6-----6--6--6--6--6--6--2-----2--2--2--2--2--2--2-----2--2--2--2--2--2--
E|--2-----2--2--2--2--2--2--4-----4--4--4--4--4--4--------------------------------------------------

E|--------------------------------------------------------------------------------------------------
B|--------------------------------------------------------------------------------------------------
G|--------------------------------------------------4-----4--4--4--4--4--4--4-----4--4--4--4--4--4--
D|--4-----4--4--4--4--4--4--6-----6--6--6--6--6--6--4-----4--4--4--4--4--4--4-----4--4--4--4--4--4--
A|--4-----4--4--4--4--4--4--6-----6--6--6--6--6--6--2-----2--2--2--2--2--2--2-----2--2--2--2--2--2--
E|--2-----2--2--2--2--2--2--4-----4--4--4--4--4--4--------------------------------------------------

E|--------------------------------------------------------------------------------------------------
B|--------------------------------------------------------------------------------------------------
G|--------------------------------------------------4-----4--4--4--4--4--4--4-----4--4--4--4--4--4--
D|--4-----4--4--4--4--4--4--6-----6--6--6--6--6--6--4-----4--4--4--4--4--4--4-----4--4--4--4--4--4--
A|--4-----4--4--4--4--4--4--6-----6--6--6--6--6--6--2-----2--2--2--2--2--2--2-----2--2--2--2--2--2--
E|--2-----2--2--2--2--2--2--4-----4--4--4--4--4--4--------------------------------------------------

Transition 3 Solo: Overdrive/Distortion Guitar
E|-----------------------------------------------------------------------------------------------------------------
B|-----------------------------------------------9---9b10----------------------------------------------------------
G|--------------------8--11----8-----------8--11----------11-11----------8--11-11----------8--11-11----------8--11-
D|--------------8--11-------------11-8--11-------------------------8--11-------------8--11-------------8--11-------
A|--------9--11----------------------------------------------------------------------------------------------------
E|--9--11----------------------------------------------------------------------------------------------------------

E|-----------------------------------10-------------------------------------------------------------------
B|--9-----9------9b10-------9--11-12----12-11-11h12p11p9-----11h12p11p9-----11h12p11p9-----11h12p11p9-----
G|-----11----11-------11-11-------------------------------11-------------11-------------11-------------11-
D|--------------------------------------------------------------------------------------------------------
A|--------------------------------------------------------------------------------------------------------
E|--------------------------------------------------------------------------------------------------------

E|--9-----------------------------------------------------------------------------------------------------
B|-----12-11-11h12-11-9---9h11-9-----9-----9--11h12p11p9-----11h12p11p9-----11h12p11p9-----11h12p11p9-----
G|--------------------------------11----11----------------11-------------11-------------11-------------11-
D|--------------------------------------------------------------------------------------------------------
A|--------------------------------------------------------------------------------------------------------
E|--------------------------------------------------------------------------------------------------------

E|--9-----9--9--9--9--9--9--9--11-13-14-
B|--------------------------------------
G|--------------------------------------
D|--------------------------------------
A|--------------------------------------
E|--------------------------------------

Pre-Chorus 3: OVerdrive/Distortion Guitar (Single Chord Held Out)
E|--2--------------------------------------------------------
B|--2--------------------------------------------------------
G|--3--------------------------------------------------------
D|--4--------------------------------------------------------
A|--4--------------------------------------------------------
E|--2--------------------------------------------------------

Chorus 3: Overdrive/Distortion Guitar
And I'm on my way,
E|--------------------------------------------------------------------------------------------------
B|--------------------------------------------------------------------------------------------------
G|--------------------------------------------------4-----4--4--4--4--4--4--4-----4--4--4--4--4--4--
D|--4-----4--4--4--4--4--4--6-----6--6--6--6--6--6--4-----4--4--4--4--4--4--4-----4--4--4--4--4--4--
A|--4-----4--4--4--4--4--4--6-----6--6--6--6--6--6--2-----2--2--2--2--2--2--2-----2--2--2--2--2--2--
E|--2-----2--2--2--2--2--2--4-----4--4--4--4--4--4--------------------------------------------------
I'll be there soon oh just you wait,
E|--------------------------------------------------------------------------------------------------
B|--------------------------------------------------------------------------------------------------
G|--------------------------------------------------4-----4--4--4--4--4--4--4-----4--4--4--4--4--4--
D|--4-----4--4--4--4--4--4--6-----6--6--6--6--6--6--4-----4--4--4--4--4--4--4-----4--4--4--4--4--4--
A|--4-----4--4--4--4--4--4--6-----6--6--6--6--6--6--2-----2--2--2--2--2--2--2-----2--2--2--2--2--2--
E|--2-----2--2--2--2--2--2--4-----4--4--4--4--4--4--------------------------------------------------
I've dreamed of this day after day after day after day for so damn long,
E|--------------------------------------------------=-----------------------------------------------
B|--------------------------------------------------------------------------------------------------
G|--------------------------------------------------------------------------------------------------
D|--4-----4--4--4--4--4--4--4-----4--4--4--4--4--4--4-----4--4--4--4--4--4--4-----4--4--4--4--4--4--
A|--4-----4--4--4--4--4--4--5-----5--5--5--5--5--5--6-----6--6--6--6--6--6--5-----5--5--5--5--5--5--
E|--2-----2--2--2--2--2--2--2-----2--2--2--2--2--2--2-----2--2--2--2--2--2--2-----2--2--2--2--2--2--
I've dreamed of this day after day after day after day for so damn long,
E|--------------------------------------------------=-----------------------------------------------
B|--------------------------------------------------------------------------------------------------
G|--------------------------------------------------------------------------------------------------
D|--4-----4--4--4--4--4--4--4-----4--4--4--4--4--4--4-----4--4--4--4--4--4--4-----4--4--4--4--4--4--
A|--4-----4--4--4--4--4--4--5-----5--5--5--5--5--5--6-----6--6--6--6--6--6--5-----5--5--5--5--5--5--
E|--2-----2--2--2--2--2--2--2-----2--2--2--2--2--2--2-----2--2--2--2--2--2--2-----2--2--2--2--2--2--
I've dreamed of this day after day after day after day for so damn long,
E|-----------------------------------------------------------------------------
B|-----------------------------------------------------------------------------
G|-----------------------------------------------------------------------------
D|--4-----4-----4-----4-----4-----4-----4-----4-----4-----4-----4-----4-----4--
A|--4-----4-----4-----4-----5-----5-----5-----5-----6-----6-----6-----6-----7--
E|--2-----2-----2-----2-----2-----2-----2-----2-----2-----2-----2-----2-----2--
I don't know just what I'll do but I know I just can't wait,
To see you...
E|-----------------
B|-----------------
G|--4-----7--------
D|--4-----7-----4--
A|--2-----5-----4--
E|--------------2--

About See You Again : The track was commissioned for the soundtrack of the 2015 action film Furious 7 as a tribute to actor Paul Walker, who died in a single-vehicle accident on November 30, 2013, in Valencia, California . Later on, the song was included as a bonus track on the international release of Puth's debut album, Nine Track Mind . It spent 12 non-consecutive weeks atop the US Billboard Hot 100 . It topped the UK Singles Chart for two consecutive weeks . It also reached number one in several other countries . " See You Again" received three nominations at the 58th Annual Grammy Awards . The music video was the most viewed video on YouTube from July 10 to August 4, 2017 . It was released in 2015. It was released as part of album Furious 7: Original Motion Picture Soundtrack and Nine Track Mind (International edition). The genre is hip hop pop-rap. The track was release in 2015. See You Again has a significant contribution from artist(s) Wiz Khalifa,Charlie Puth,Paul Walker. It is related to the album(s) - Nine Track Mind.

About Wiz Khalifa - His Eurodance-influenced single, "Say Yeah", received urban radio airplay in 2008 . His debut album, Show and Prove, was released in 2006 . Khalifa parted with Warner Bros. and released his second album, Deal or No Deal, in November 2009 . Released the mixtape Kush and Orange Juice as a free download in April 2010 . His debut album, Rolling Papers, was released on March 29, 2011 . Khalifa was born Cameron Jibril Thomaz on September 8, 1987 in Minot, North Dakota, to parents serving in the military . He is a military brat with his parents' military service causing him to move regularly . Khalifa lived in Germany, the United Kingdom, and Japan . The most notable albums include - Show and Prove. Wiz Khalifa's music is influenced by genre(s) - hip hop r&b trap.

About Nine Track Mind : Charlie Puth's debut studio album is released on January 29, 2016 . It was originally scheduled to be released on November 6, 2015 . The album's lead single, "Marvin Gaye", was originally released as "Some Type of Love's" only single on February 10, 2015 . "One Call Away" was released on August 20, 2015, reaching as high as number 12 on the Billboard Hot 100 . The finalized track listing was revealed on December 11, 2015 . The final track listing removed the tracks "Know Your Name" and "Hard" A deluxe edition, containing three new songs, was released on November 11, 2016 . It had a contribution from notable artists like Charlie Puth. Its music is influenced by genres - pop r&b.

tabs and chords, guitar tabs, music transcription, music technology, deep learning, music information retrieval, transcribe into tabs & chords, chordify, music renditions, songsterr, reverbnation, tabulature, bollywood chords, ultimate guitar, yousician, guitar lessons, acoustic guitar, electric guitar, guitar tuner, 911 tabs