Bass Tabs for Secondhand Smoke

(/) Slide Up  (\) Slide Down  (h) Hammer On  (p) Pull Off  (b) Bend (r) Release (v) Vibrato (x) Muted

Tabs for Song : SECONDHAND SMOKE
BPM : 200

You have blacked out my lungs! 
G|--------------------------------------------------------------------------------------------------
D|--------------------------------------------------------------------------------------------------
A|--0--0--0--0--0--0--0--0--------------------------3--3--3--3--3--3--3--3--------------------------
E|--------------------------1--1--1--1--1--1--1--1--------------------------3--3--3--3--3--3--3--3--

Guess it's just something you never knew 
G|--------------------------------------------------------------------------------------------------
D|--------------------------------------------------------------------------------------------------
A|--0--0--0--0--0--0--0--0--------------------------3--3--3--3--3--3--3--3--------------------------
E|--------------------------1--1--1--1--1--1--1--1--------------------------3--3--3--3--3--3--3--3--

~break~
G|-----------------------------------------------------------------------------------------------------
D|--------------------------3--------3--3--------------------------------------------------------------
A|--0--------0--0-----------------------------------3--------3--3--------------------------------------
E|--------------------------------------------------------------------------3--------3--3--------------


G|--------------------------------------------------------------------------------------------------
D|--------------------------3--------3--3-----------------------------------------------------------
A|--0--------0--0-----------------------------------3--------3--3-----------------------------------
E|--------------------------------------------------------------------------3--------3--3-----------

You beg me for a light
G|-----------------------------------------0-----------------------------------------------0-----
D|--3--------3--3-----------3--------3--3-----3--------------------------------------------------
A|--------------------------------------------------3--------3--3--------------------------------
E|--------------------------------------------------------------------------3--------3--3-----3--

You don't know what it's like
G|-----------------------------------------0--------0-----------------0-----------0-----------0-------
D|--3--------3--3-----------3--------3--3-----3--------------------------------------------------------
A|-----------------------------------------------------------------------------------------------------
E|-----------------------------------------------------------3-----3--------3--3-----3--3--3-----------

I have never been distracted by withdrawal in my day
G|-----x--
D|-----x--
A|-----x--
E|-----x--

I have only felt relief when I finally get away
G|--------------------------------------------------------------------------------------------------
D|--------------------------3--------3--3-----------------------------------------------------------
A|--0--------0--0-----------------------------------3--------3--3-----------------------------------
E|--------------------------------------------------------------------------3--------3--3-----------

Still they tell me to relax; "it has null to do with you"
G|--------------------------------------------------------------------------------------------------
D|--------------------------3--------3--3-----------------------------------------------------------
A|--0--------0--0-----------------------------------3--------3--3-----------------------------------
E|--------------------------------------------------------------------------3--------3--3-----------

Mom and Daddy risk their lives, but it's gonna kill me too
G|--------------------------------------------------------------------------------------------------
D|--------------------------3--------3--3-----------------------------------------------------------
A|--0--------0--0-----------------------------------3--------3--3-----------------------------------
E|--------------------------------------------------------------------------3--------3--3-----------

It gets in my throat and hurts
G|--------------------------------------------------------------------------------------------------
D|--3--------3--3-----------3--------3--3-----------------------------------------------------------
A|--------------------------------------------------3--------3--3-----------------------------------
E|--------------------------------------------------------------------------3--------3--3-----------

It's just secondhand smoke
G|--------------------------------------------------------------------------------------------------
D|--3--------3--3-----------3--------3--3-----------------------------------------------------------
A|--------------------------------------------------------------------------------------------------
E|--------------------------------------------------3--------3--3-----------3--------3--3-----------

I don't think that you have got a clue how your smoke diffuses through the room
G|--------------------------------------------------------------------------------------------------
D|--------------------------3--------3--3-----------------------------------------------------------
A|--0--------0--0-----------------------------------3--------3--3-----------------------------------
E|--------------------------------------------------------------------------3--------3--3-----------

I don't think you really care to know that the smell would permeate my clothes 
G|--------------------------------------------------------------------------------------------------
D|--------------------------3--------3--3-----------------------------------------------------------
A|--0--------0--0-----------------------------------3--------3--3-----------------------------------
E|--------------------------------------------------------------------------3--------3--3-----------

You have blacked out my lungs
G|--------------------------------------------------------------------------------------------------
D|--------------------------3--------3--3-----------------------------------------------------------
A|--0--------0--0-----------------------------------3--------3--3-----------------------------------
E|--------------------------------------------------------------------------3--------3--3-----------

Guess your one true love is nicotime: try to quit or get away from me
G|--------------------------------------------------------------------------------------------------
D|--------------------------3--------3--3-----------------------------------------------------------
A|--0--------0--0-----------------------------------3--------3--3-----------------------------------
E|--------------------------------------------------------------------------3--------3--3-----------

~bass solo~
G|--------2-----------2--0--------------------------------------------------------------202---0------
D|-----------------------------------3-----------3--------------------------------------------------
A|--0--0--------0--0--------------------------------3--3--3-----3-----2-----------------------------
E|--------------------------1--1--1-----1--1--1--------------3-----3--------3--3--3--3--------------

G|--------2-----------2--0-----------------------------------------------------------------020------
D|-----------------------------------3-----------3--------------------------------------------------
A|--0--0--------0--0--------------------------------3--3--3-----3-----2-----------------------------
E|--------------------------1--1--1-----1--1--1--------------3-----3--------3--3--3--3--3-----------

I don't think you really understand how much I don't wnna find a man
G|-----x--
D|-----x--
A|-----x--
E|-----x--

He'll try to hide his habit but I'll know, cuz mom and dad gave me a nose for smoke
G|-----x--
D|-----x--
A|-----x--
E|-----x--

You have blacked out my lungs
G|-----------------------------------------0-----------------------------------------------020------
D|--------------------------3--------3--3-----3-----------------------------------------------------
A|--0--------0--0-----------------------------------3--------3--3-----------------------------------
E|--------------------------------------------------------------------------3--------3--3-----------

Guess it's just something you never knew
G|-----------------------------------------------------------------------------------------------------
D|--------------------------3--------3--3-----------------------------------------------------------
A|--0--------0--0-----------------------------------3--------3--3-----------------------------------
E|--------------------------------------------------------------------------3-----------------------
tabs and chords, guitar tabs, music transcription, music technology, deep learning, music information retrieval, transcribe into tabs & chords, chordify, music renditions, songsterr, reverbnation, tabulature, bollywood chords, ultimate guitar, yousician, guitar lessons, acoustic guitar, electric guitar, guitar tuner, 911 tabs