Guitar Tabs for Screech's Tale

(/) Slide Up  (\) Slide Down  (h) Hammer On  (p) Pull Off  (b) Bend (r) Release (v) Vibrato (x) Muted


    
E|--------------------------------------------------------------------------
B|--------------------------------------------------------------------------
G|--0---2/4---2---0-------2---2/7---5---4---4/12---11---5---4---2-----------
D|-------------------4------------------------------------------------------
A|--------------------------------------------------------------------------
E|--0---------------------2-------------3---------------5-------------------


E|--------------------------------------------------------------------------
B|--------------------------1p0-----------------3--1--0-----0--1------------
G|--4---2---0---------------------2-0--------------------2------------------
D|--------------4---2---0---------------4---2-------------------------------
A|--------------------------------------------------------------------------
E|--0-----------------------2-------------------3---------------------------

    
    A           C           G                     F#         B
E|--------------------------------------------------------------------------
B|--2-----------1--3--1--0-----------------------------------4----5----7~~--
G|-----2--------------------0----4--5--4--3--4----3-------------------------
D|--------2------------------------------------------4----------------------
A|--0-----------3---------------------------------------4----2--------------
E|-------------------------------3----------------2-------------------------

E|--------------------------------------------------------------------------
B|--------------------------------------3p0--1p0------------1p0-------------
G|---4p0--2p0--4p0--5p0--4p0--2p0--4--------------2p0------------2p0--------
D|-----------------------------------------------------2p0------------------
A|--------------------------------------------------------------------------
E|--0-----------------------------------2-----------------------------------

E|--------------------------------------------------------------------------
B|--------------------3p0-----------------------4p0--5p0--7p0--8p0--7p0--5p0
G|-----4p0--2p0--4p0-------4p0--2p0--4------4p0-----------------------------
D|--------------------------------------------------------------------------
A|----------------------------------------0---------------------------------
E|--3-----------------------------------------------------------------------

E|--7p0---------------------------------------------------------------------
B|-------10p0--8p0--7p0--10p0--8p0--7p0--8p0--10p0--8p0--7p0--8p0--7--------
G|-------------------------------------------------------------------8----7-
D|----------------------------------------------------------------------9---
A|--------------------------------------------------------------------------
E|--8-----------------------------------------7-----------------------------

E|--------------------------------------------------------------------------------
B|--5p0--8p0--5p0--8p0--5p0--8p0--5p0--8p0--5p0--8p0--5p0--8p0--5p0--8p0--5p0--8p0
G|--------------------------------------------------------------------------------
D|--------------------------------------------------------------------------------
A|--------------------------------------------------------------------------------
E|--0---------------------------------------7-------------------------------------

E|--------------------------------------------------------------------------------
B|--5p0--8p0--5p0--8p0--5p0--8p0--5p0--8p0-------5~~~~----------------------------
G|--------------------------------------------------------------------------------
D|--------------------------------------------------------------------------------
A|--------------------------------------------------------------------------------
E|--0------------------------------------------0----------------------------------
The story it starts right to the end the life of poor jenny clocked out like big bang...
Em                  A                C              B

E|-----7-7-----7-7-----5-5--------------8--8-----------7-7-7-----------------------
B|-----8-8-----8-8-----5-5--------------8--8-----------7-7-7-----------------------
G|-----9-9-----9-9-----6-6--------------9--9-----------8-8-8-----------------------
D|-----9-9-----9-9-----7-7--------------10-10----------9-9-9-----------------------  REPEAT 2X
A|--7-------7----------7-7--------------10-10----------9-9-9-----------------------
E|------------------5----------------8--------------7------------------------------  (The screech the boy ...)

 PATRICK MAN LET ME IN PLEASE OPEN THE DOOR, I THINK I FUCKED UP PATRICK REALLY FUCKED UP... 
E|--------------------------------------------------------------------------------------------------
B|--------------------------------------------------------------------------------------------------
G|--------------------------------------------------------------------------------------------------
D|--------------------------------------------------------------------------------------------------
A|--------------------------------------------------------------------------------------------------
E|--0--0--0--0--0--0--0--0--3--3--3--2--2--2--2--2--0--0--0--0--0--0--0--0--3--3--3--2--2--2--2--2--


I got crazy left this lady lying still on the flor. 
E|--------------------------------------------------
B|--------------------------------------------------
G|--------------------------------------------------
D|--------------------------------------------------
A|--------------------------------------------------
E|--0--0--0--0--0--0--0--0--3--3--3--2--2--2--2--2--
I THINK I KILLED HER PATRICK COME ON MAN I CANT KNOCK NO MORE
            C                               B
E|----------0-------------------------------2-----------------
B|----------1-------------------------------4-----------------
G|----------0-------------------------------4-----------------
D|----------2-------------------------------4-----------------
A|----------3-------------------------------2-----------------
E|------------------------------------------------------------







tabs and chords, guitar tabs, music transcription, music technology, deep learning, music information retrieval, transcribe into tabs & chords, chordify, music renditions, songsterr, reverbnation, tabulature, bollywood chords, ultimate guitar, yousician, guitar lessons, acoustic guitar, electric guitar, guitar tuner, 911 tabs