Guitar Tabs for Scared Games Guitar Theme

E|--------------------------------------------------------------------------
B|--------------------------------------------------------------------------
G|-----------5-----------------5-----------------5-----------------5--------
D|--5--7--------7-----5--7--------7-----5--7--------7-----5--7--------7-----
A|--------------------------------------------------------------------------
E|--------------------------------------------------------------------------


E|--------------------------------------------------------------------------------
B|--------------------------------------------------------------------------------
G|--------------------------------------------------------------------------------
D|--------------2--3--2-----------2--3--2-----------2--3--2-----------2--3--2-----
A|-----5--4--5-----------5--4--5-----------5--4--5-----------5--4--5--------------
E|--------------------------------------------------------------------------------


E|--------------------------------------------------------------------------------
B|--------------5--6--5-----------5--6--5-----------5--6--5-----------5--6--5-----
G|---5/7--6--7-----------7--6--7-----------7--6--7-----------7--6--7--------------
D|--------------------------------------------------------------------------------
A|--------------------------------------------------------------------------------
E|--------------------------------------------------------------------------------


E|-----------------------------------------
B|---8/10-10--------8/10-10-9--10/11-10-10-
G|-----------10-7--------------------------
D|-----------------------------------------
A|-----------------------------------------
E|-----------------------------------------


E|-----------------------------------------
B|---8/10-10--------8/10-10-9--10/11-10-10-
G|-----------10-7--------------------------
D|-----------------------------------------
A|-----------------------------------------
E|-----------------------------------------


E|--------------------------------------------
B|---8/10-10--------8/10-10-9--10/11-10-10----
G|-----------10-7-----------------------------
D|--------------------------------------------
A|--------------------------------------------
E|--------------------------------------------
tabs and chords, guitar tabs, music transcription, music technology, deep learning, music information retrieval, transcribe into tabs & chords, chordify, music renditions, songsterr, reverbnation, tabulature, bollywood chords, ultimate guitar, yousician, guitar lessons, acoustic guitar, electric guitar, guitar tuner, 911 tabs