Guitar Tabs for Sau tarha ke

Tabs for Song : sau tarah ke

kal subh sochenge jo aaj raat kiya
E|--4--4---4h5-----5--5--4--4-----4-----------------
B|-----------------------------5-----7-----7--5-----
G|--------------------------------------------------
D|--------------------------------------------------
A|--------------------------------------------------
E|--------------------------------------------------

kal subh din lenge sari galtiya
E|--4--4---4h5-----5--5--4--4-----4-----------------
B|-----------------------------5-----7-----7--5-----
G|--------------------------------------------------
D|--------------------------------------------------
A|--------------------------------------------------
E|--------------------------------------------------

tu mera abhi ,ho jana ajnabi
E|--7--7--7--7--------------7--7--7--7--------------
B|--------------5-----5-----------------5-----5-----
G|--------------------------------------------------
D|--------------------------------------------------
A|--------------------------------------------------
E|--------------------------------------------------

fir hum milenge na kabhi
E|---7\9--7--5--4--4--5--------
B|-----------------------7-----
G|-----------------------------
D|-----------------------------
A|-----------------------------
E|-----------------------------

kal subh chale jaenge hai ghar jahan
E|--4--4---4h5-----5--5--4--4-----4-----------------
B|-----------------------------5-----7-----7--5-----
G|--------------------------------------------------
D|--------------------------------------------------
A|--------------------------------------------------
E|--------------------------------------------------

kal subh bole jo bhi bolega jahan
E|--4--4---4h5-----5--5--4--4-----4-----------------
B|-----------------------------5-----7-----7--5-----
G|--------------------------------------------------
D|--------------------------------------------------
A|--------------------------------------------------
E|--------------------------------------------------

tu mera abhi,ho jana ajnabi
E|--7--7--7--7--------------7--7--7--7--------------
B|--------------5-----5-----------------5-----5-----
G|--------------------------------------------------
D|--------------------------------------------------
A|--------------------------------------------------
E|--------------------------------------------------

phir hum milenge na kabhi
E|--2--0--2--0--2--5--4-----
B|--------------------------
G|--------------------------
D|--------------------------
A|--------------------------
E|--------------------------

sau tarah ke rog le lu
E|--------------------------------------------
B|--------5--4-----5-----------5--4-----5-----
G|--6--------------------6--------------------
D|--------------------------------------------
A|--------------------------------------------
E|--------------------------------------------

ishq ka marz kya h
E|-----------------------------------
B|--4-----4--4--4--------------------
G|--------------------6--4-----6-----
D|-----------------------------------
A|-----------------------------------
E|-----------------------------------
tabs and chords, guitar tabs, music transcription, music technology, deep learning, music information retrieval, transcribe into tabs & chords, chordify, music renditions, songsterr, reverbnation, tabulature, bollywood chords, ultimate guitar, yousician, guitar lessons, acoustic guitar, electric guitar, guitar tuner, 911 tabs