Guitar Tabs for Saria's Song

(/) Slide Up  (\) Slide Down  (h) Hammer On  (p) Pull Off  (b) Bend (r) Release (v) Vibrato (x) Muted

Tabs for Song : 

Song lyrics here
E|-----5--7--------5--7--------5---7/12-10-----7h8--7--------------------------
B|--6-----------6-----------6--------------------------8--5---------3/5---8\5--
G|-----------------------------------------------------------------------------
D|-----------------------------------------------------------------------------
A|-----------------------------------------------------------------------------
E|-----------------------------------------------------------------------------

Song lyrics here
E|---------------3h5--7------7b8------------------------------3h5--7------7h8--12-
B|---3h5--6-----------------------5---------------3h5--6--------------------------
G|--------------------------------------------------------------------------------
D|--------------------------------------------------------------------------------
A|--------------------------------------------------------------------------------
E|--------------------------------------------------------------------------------

E|---------------3h5--7------7b8-----------------------------------------------------------------------------------------------12-12-12-12\0--
B|---3h5--6-----------------------5--------------------------------------------------------17h18----15h17-------------------------------------
G|-----------------------------------------------9-----10----12----14----16----17----19-------------------------------------------------------
D|--------------------------------------------------10----14----15----17----19----21----22----------------------------------------------------
A|--------------------------------------------------------------------------------------------------------------------------------------------
E|--------------------------------------------------------------------------------------------------------------------------------------------

Paste any tab in acousterr's tab maker and we'll play it !!!
Now supports capo and sound effects for vibrato/pull-off/hammer/bends/mutes etc !!! Checkout help section
tabs and chords, guitar tabs, music transcription, music technology, deep learning, music information retrieval, transcribe into tabs & chords, chordify, music renditions, songsterr, reverbnation, tabulature, bollywood chords, ultimate guitar, yousician, guitar lessons, acoustic guitar, electric guitar, guitar tuner, 911 tabs