Guitar Tabs for Sare Jahan Se Acha

sare jahan achcha
hindusta hamara hamara
E|--------------------------------------------------------4-----5-----4-----4-----5--4--------
B|---5/8--8--7--5--7-----4---4/5--5--------------5-----7-----------------------7--------7--5--
G|---------------------------------------2/4--------------------------------------------------
D|--------------------------------------------------------------------------------------------
A|--------------------------------------------------------------------------------------------
E|--------------------------------------------------------------------------------------------

sare jahan se achacha hindusta hamara
E|--------------------------------------------------------4-----5--4-----4-----
B|---5/8--8--7--5--7-----4---4/5--5--------------5-----7-----------------------
G|---------------------------------------2/4-----------------------------------
D|-----------------------------------------------------------------------------
A|-----------------------------------------------------------------------------
E|--------------------------------------------------------------------------------

hum bul bule hai iske
ye gulsita hamara hamara
E|--4---5/7--7--7-----4--5--9--7-----4---5/7--------------------------------
B|--------------------------------------------8--7--5--5--5-----5-----------
G|-----------------------------------------------------------8-----8--6--4--
D|--------------------------------------------------------------------------
A|--------------------------------------------------------------------------
E|--------------------------------------------------------------------------

sare jahan achcha
hindusta hamara hamara
E|--------------------------------------------------------4-----5-----4-----4-----5--4--------
B|---5/8--8--7--5--7-----4---4/5--5--------------5-----7-----------------------7--------7--5--
G|---------------------------------------2/4--------------------------------------------------
D|--------------------------------------------------------------------------------------------
A|--------------------------------------------------------------------------------------------
E|--------------------------------------------------------------------------------------------

sare jahan se achacha hindusta hamara
E|--------------------------------------------------------4-----5-----4-----4-----
B|---5/8--8--7--5--7-----4---4/5--5--------------5-----7--------------------------
G|---------------------------------------2/4--------------------------------------
D|--------------------------------------------------------------------------------
A|--------------------------------------------------------------------------------
E|--------------------------------------------------------------------------------

parwat ho sabse uncha ham saya aasman ka
E|---2/4--4--4--4--4-----5---4h-5p4--------------------------------4-----5--4-----4-----
B|------------------------------------7\5--5--------------5-----7-----------------------
G|------------------------------------------------2/4-----------------------------------
D|--------------------------------------------------------------------------------------
A|--------------------------------------------------------------------------------------
E|--------------------------------------------------------------------------------------

wo santari hamara wo pasawa hamara hamara
E|--4------5/7--7--7-----4--5--9--7-----4------5/7--------------------------------------
B|--------------------------------------------------8-----7-----5--5--5-----5-----------
G|-----------------------------------------------------------------------8-----8--6--4--
D|--------------------------------------------------------------------------------------
A|--------------------------------------------------------------------------------------
E|--------------------------------------------------------------------------------------

sare jahan achcha
E|--------------------------------------
B|---5/8--8--7--5--7-----4---4/5--5-----
G|--------------------------------------
D|--------------------------------------
A|--------------------------------------
E|--------------------------------------

godi me khelti hai
iski hazaro nadiyan
E|-----------------------------------------------------------------------------------------------
B|--8-----8--8--8--8-----8-----7-----10----8--7-----4-----4--4--4-----5-----8-----7--8--7--5-----
G|-----------------------------------------------------------------------------------------------
D|-----------------------------------------------------------------------------------------------
A|-----------------------------------------------------------------------------------------------
E|-----------------------------------------------------------------------------------------------


julsan hai jiske dam se...
E|--4------5/7--7--7-----4--5--9--7-----4------5/7-----------------------------------------
B|-----------------------------------------------------8--7-----5--5--5-----5--------------
G|-----------------------------------------------------------------------8-----8--6--4-----
D|-----------------------------------------------------------------------------------------
A|-----------------------------------------------------------------------------------------
E|-----------------------------------------------------------------------------------------


majhab nahi sikata aapas mein beer rakhna ×2
E|------------------------------------------5/7--7--7--7--7-----9--4--7--5-----
B|---2/4--4--4--4--4-----4---4h5-----5-----------------------------------------
G|-----------------------------------------------------------------------------
D|-----------------------------------------------------------------------------
A|-----------------------------------------------------------------------------
E|-----------------------------------------------------------------------------

hindi hai hum hindi hai hum hindi hai hum watan hai
E|---9/12-12----11-12-----9/12-12----11-12-----9/12-12----11-12----4--4--7--5---5\4-----
B|--------------------------------------------------------------------------------------
G|--------------------------------------------------------------------------------------
D|--------------------------------------------------------------------------------------
A|--------------------------------------------------------------------------------------
E|--------------------------------------------------------------------------------------

hindusta hamara hamara
E|--4------5/7--------------------------------------
B|--------------8--7-----5--5-----5-----5-----------
G|-----------------------------------8-----8--6--4--
D|--------------------------------------------------
A|--------------------------------------------------
E|--------------------------------------------------


sare jahan se achacha hindusta hamara
E|--------------------------------------------------------4-----5--4-----4--
B|---5/8--8--7--5--7-----4---4/5--5--------------5-----7--------------------
G|---------------------------------------2/4--------------------------------
D|--------------------------------------------------------------------------
A|--------------------------------------------------------------------------
E|--------------------------------------------------------------------------
tabs and chords, guitar tabs, music transcription, music technology, deep learning, music information retrieval, transcribe into tabs & chords, chordify, music renditions, songsterr, reverbnation, tabulature, bollywood chords, ultimate guitar, yousician, guitar lessons, acoustic guitar, electric guitar, guitar tuner, 911 tabs