Guitar Tabs for Sandeshe Aate Hai

E|---7/9-----10/12-12--------7/9--7-----7---9/10-10----
B|-----------------------------------------------------
G|-----------------------------------------------------
D|-----------------------------------------------------
A|-----------------------------------------------------
E|-----------------------------------------------------

E|---3/5-----7-----9------7p5--------------------
B|-----------------------------7------7/12-10----
G|-----------------------------------------------
D|-----------------------------------------------
A|-----------------------------------------------
E|-----------------------------------------------

E|--------------9-----7------7/9--------------9-----7------7/9--
B|--5--5--5--5--------------------5--5--5--5--------------------
G|--------------------------------------------------------------
D|--------------------------------------------------------------
A|--------------------------------------------------------------
E|--------------------------------------------------------------

E|--------------9-----7------7/9--------------9-----7------7/9-----
B|--5--5--5--5--------------------5--5--5--5-----------------------
G|-----------------------------------------------------------------
D|-----------------------------------------------------------------
A|-----------------------------------------------------------------
E|-----------------------------------------------------------------

E|--5---5p4--------------------------5---5p4--------------------------5---5p4--------------------------
B|------------7\5---5/7---7/9--7---------------7\5---5/7---7/9--7---------------7\5---5/7---7/10-7-----
G|-----------------------------------------------------------------------------------------------------
D|-----------------------------------------------------------------------------------------------------
A|-----------------------------------------------------------------------------------------------------
E|-----------------------------------------------------------------------------------------------------

E|--7---7/9---9\7---7/9---9\7---7/12-10----9-----
B|-----------------------------------------------
G|-----------------------------------------------
D|-----------------------------------------------
A|-----------------------------------------------
E|-----------------------------------------------

E|---7/9-----10/12-12-----7/9--7-----7---9/10-10----
B|--------------------------------------------------
G|--------------------------------------------------
D|--------------------------------------------------
A|--------------------------------------------------
E|--------------------------------------------------

E|---3/5-----7-----9------7p5--------------------
B|-----------------------------7------7/12-10----
G|-----------------------------------------------
D|-----------------------------------------------
A|-----------------------------------------------
E|-----------------------------------------------
tabs and chords, guitar tabs, music transcription, music technology, deep learning, music information retrieval, transcribe into tabs & chords, chordify, music renditions, songsterr, reverbnation, tabulature, bollywood chords, ultimate guitar, yousician, guitar lessons, acoustic guitar, electric guitar, guitar tuner, 911 tabs