Guitar Tabs for Same Old Chords Into Something Beautiful!

(/) Slide Up  (\) Slide Down  (h) Hammer On  (p) Pull Off  (b) Bend (r) Release (v) Vibrato (x) Muted

Tabs for Song : 
BPM : 200

Song lyrics here
E|-----------------------0-----------0--------------------------------------------------------------
B|-----------0-----------------------------------0--------------------------------------------------
G|-----7-----------7-----------11----------------------4-----4-----4-----4-----4-----4-----4-----4--
D|-----------------------------------------12-------------------------------------------------------
A|--------------------------------------------------------------------------------------------------
E|--7-----7-----7-----7-----10----10----10----10----3-----3-----3-----3-----3-----3-----3-----3-----

E|-----------------------0-----------0--------------------------------------------------------------
B|-----------0-----------------------------10------3----------------------------------------------
G|-----7-----------7-----------11----------------------4-----4-----4-----4-----4-----4-----4-----4--
D|--------------------------------------------------------------------------------------------------
A|--------------------------------------------------------------------------------------------------
E|--7-----7-----7-----7-----10----10----10----------3------3-----3-----3-----3-----3-----3-----3----

Song lyrics here
E|-----------------------0-----------------------0--------------------------------------------------
B|-----------0-----------------------0--------------------------------------------------------------
G|-----7-----------7-----------6-----------6-----------4-----4-----4-----4-----4-----4-----4-----4--
D|--------------------------------------------------------------------------------------------------
A|--------------------------------------------------------------------------------------------------
E|--7-----7-----7-----7-----5-----5-----5-----5-----3-----3-----3-----3-----3-----3-----3-----3-----

E|------------------------------------------------------
B|-----------0-----------0-----------0-----------0--0---
G|-----0-----------------------2-----------2--------0---
D|-----------------2--------------------------------0---
A|--------------------------------------------------0---
E|--0-----0-----0-----0-----2-----2-----2-----2-----3--





-

Paste any tab in acousterr's tab maker and we'll play it !!!
Now supports capo and sound effects for vibrato/pull-off/hammer/bends/mutes etc !!! Checkout help section
tabs and chords, guitar tabs, music transcription, music technology, deep learning, music information retrieval, transcribe into tabs & chords, chordify, music renditions, songsterr, reverbnation, tabulature, bollywood chords, ultimate guitar, yousician, guitar lessons, acoustic guitar, electric guitar, guitar tuner, 911 tabs