Guitar Tabs for Sam Kim Suit And Tie

(/) Slide Up  (\) Slide Down  (h) Hammer On  (p) Pull Off  (b) Bend (r) Release (v) Vibrato (x) Muted

Tabs for Song : Suit and Tie
BPM : 200

          Its amazing how you knock me off my feet
E|--------------0-----------------------0-----------------------0--------------------------0--
B|-----------7-----7-----------------5-----5-----------------3-----3------------------0h2-----
G|--------6-----------6-----------0-----------0-----------0-----------0-----------1-----------
D|-----7-----------------7-----6-----------------6-----4-----------------4-----2--------------
A|--5-----------------------4-----------------------2-----------------------0-----------------
E|--------------------------------------------------------------------------------------------
(/) Slide Up  (\) Slide Down  (h) Hammer On  (p) Pull Off  (b) Bend (r) Release (v) Vibrato (x) Muted

          Everytime you come around me I get weaaaaaakkkkkk
E|--------------0-----------------------0-----------------------0--------------------------0--
B|-----------7-----7-----------------5-----5-----------------3-----3------------------0h2-----
G|--------6-----------6-----------0-----------0-----------0-----------0-----------1-----------
D|-----7-----------------7-----6-----------------6-----4-----------------4-----2--------------
A|--5-----------------------4-----------------------2-----------------------0-----------------
E|--------------------------------------------------------------------------------------------
(/) Slide Up  (\) Slide Down  (h) Hammer On  (p) Pull Off  (b) Bend (r) Release (v) Vibrato (x) Muted

         No Body has ever made me feel this way ay ay ay ay
E|--------------0-----------------------0-----------------------0--------------------------0--
B|-----------7-----7-----------------5-----5-----------------3-----3------------------0h2-----
G|--------6-----------6-----------0-----------0-----------0-----------0-----------1-----------
D|-----7-----------------7-----6-----------------6-----4-----------------4-----2--------------
A|--5-----------------------4-----------------------2-----------------------0-----------------
E|--------------------------------------------------------------------------------------------


          You kiss my lips and then you take my breath awayyyy
E|--------------0-----------------------0-----------------------0-----------0--
B|-----------7-----7-----------------5-----5-----------------3-----3--------3--
G|--------6-----------6-----------0-----------0-----------0-----------0-----0--
D|-----7-----------------7-----6-----------------6-----4-----------------4--4--
A|--5-----------------------4-----------------------2-----------------------2--
E|-----------------------------------------------------------------------------

Song lyrics here 
E|--
B|--
G|--
D|--
A|--
E|--

Use manual mode to free up cursor. Paste any tab in acousterr tab maker and we'll play it !!!
tabs and chords, guitar tabs, music transcription, music technology, deep learning, music information retrieval, transcribe into tabs & chords, chordify, music renditions, songsterr, reverbnation, tabulature, bollywood chords, ultimate guitar, yousician, guitar lessons, acoustic guitar, electric guitar, guitar tuner, 911 tabs