Guitar Tabs for Sahr El Layaly

(/) Slide Up  (\) Slide Down  (h) Hammer On  (p) Pull Off  (b) Bend (r) Release (v) Vibrato (x) Muted

Tabs for Song : 
BPM : 200

Song lyrics here 
E|--1--0-----1--1--------0--------0--0-----------------------------------------0--------1--0-----1--1-----0--------0--0-----
B|--------3-----------------3--1--------------3--1--0--3--3--------0--3--1--3-----------------3--------------3--1-----------
G|--------------------------------------------------------------------------------------------------------------------------
D|--------------------------------------------------------------------------------------------------------------------------
A|--------------------------------------------------------------------------------------------------------------------------
E|--------------------------------------------------------------------------------------------------------------------------

Song lyrics here 
E|--------------------------------------
B|--3--1--0--3--3--------0--3--1--0-----
G|-----------------------------------2--
D|--------------------------------------
A|--------------------------------------
E|--------------------------------------

E|--0-----0-----0-----0--5--3--3--1--1-----------------------------3--1--1--0--0--------------------------1--0--------------------------------1--0--
B|-----3-----3--------------------------------3--1--3--1--3-----3--------------------1--1--1--0-----------------3--3--------3--1--0--1--3--3--------
G|-----------------------------------------------------------------------------------------------2--------------------------------------------------
D|--------------------------------------------------------------------------------------------------------------------------------------------------
A|--------------------------------------------------------------------------------------------------------------------------------------------------
E|--------------------------------------------------------------------------------------------------------------------------------------------------

E|--5--5--5-----5--5--3--1--0--1--0-----------3--3--3-----3--3--1--0-----0--------------1--1-----1--0--------
B|-----------------------------------3--------------------------------3-----3--1-----------------------3--1--
G|-----------------------------------------------------------------------------------------------------------
D|-----------------------------------------------------------------------------------------------------------
A|-----------------------------------------------------------------------------------------------------------
E|-----------------------------------------------------------------------------------------------------------

E|--0--0-----0-----------------------0--------5--5-----7--8--
B|--------------3--1--0-----0--1--3--------------------------
G|-----------------------------------------------------------
D|-----------------------------------------------------------
A|-----------------------------------------------------------
E|-----------------------------------------------------------

E|-----------------------------------------------------------------------------------
B|--1--1--1-----1--1--0-----------------------0--0--0-----0--0-----------------------
G|-----------------------2--0--2--0-----------------------------2--0-----0-----------
D|-----------------------------------3--------------------------------3-----3--2-----
A|-----------------------------------------------------------------------------------
E|-----------------------------------------------------------------------------------

E|--------------------------------------------------------------------
B|--------------------------------------------------------------------
G|--2--2-----2--0-----------0--0-----0--------------------------1--2--
D|-----------------3--2-----------------3--2--0-----3--3--2--3--------
A|--------------------------------------------------------------------
E|--------------------------------------------------------------------

E|--ong lyrics here 
E|--1--0-----1--1--------0--------0--0-----------------------------------------0--------1--0-----1--1-----0--------0--0-----
B|--------3-----------------3--1--------------3--1--0--3--3--------0--3--1--3-----------------3--------------3--1-----------
G|--------------------------------------------------------------------------------------------------------------------------
D|--------------------------------------------------------------------------------------------------------------------------
A|--------------------------------------------------------------------------------------------------------------------------
E|--------------------------------------------------------------------------------------------------------------------------

Song lyrics here 
E|--------------------------------------
B|--3--1--0--3--3--------0--3--1--0-----
G|-----------------------------------2--
D|--------------------------------------
A|--------------------------------------
E|-------------------------------------\
B|--
G|--
D|--
A|--
E|--

Use manual mode to free up cursor. Paste any tab in acousterr tab maker and we'll play it !!!
tabs and chords, guitar tabs, music transcription, music technology, deep learning, music information retrieval, transcribe into tabs & chords, chordify, music renditions, songsterr, reverbnation, tabulature, bollywood chords, ultimate guitar, yousician, guitar lessons, acoustic guitar, electric guitar, guitar tuner, 911 tabs