Guitar Tabs for Sacrifice

(/) Slide Up  (\) Slide Down  (h) Hammer On  (p) Pull Off  (b) Bend (r) Release (v) Vibrato (x) Muted

Tabs for Song : Sacrifice
BPM : 90

   Bass Tabs
E|----------------------------------------------------------
B|--------------------------------------------------------
G|--------------------------------------------------------
D|--------------------------------------------------------
A|-----------------------------4-----4------7/8--7--6--4--
E|--2-----2-----2-----2--1--2--------------------------

   Guitar Melody Tabs
E|-----------------------------------------------------------
B|-----------------------------------------10/11----9--------
G|---9/10--9/10-----9/10-8-----8---9/10----------------------
D|--------------------------11-------------------------------
A|-----------------------------------------------------------
E|--------------------------------------------------------
   Guitar Chords Tabs 
E|-----------------------------------------------------------
B|--9-----------4-----------9-----------4--------------------
G|--9-----------3-----------9-----------3--------------------
D|--7-----------3-----------7-----------3--------------------
A|--9-----------------------9--------------------------------
E|--------------4-----------------------4--------------------
tabs and chords, guitar tabs, music transcription, music technology, deep learning, music information retrieval, transcribe into tabs & chords, chordify, music renditions, songsterr, reverbnation, tabulature, bollywood chords, ultimate guitar, yousician, guitar lessons, acoustic guitar, electric guitar, guitar tuner, 911 tabs