Guitar Tabs for Saco Tu Demonio Para Cogermelo

(/) Slide Up  (\) Slide Down  (h) Hammer On  (p) Pull Off  (b) Bend (r) Release (v) Vibrato (x) Muted

Tabs for Song : 

Song lyrics here
E|--------------------------------------
B|-----12b13-12-11-13-12-11-13-12-11-12b
G|--12----------------------------------
D|--------------------------------------
A|--------------------------------------
E|--------------------------------------

Song lyrics here
E|--12b13-12-11-13-12-11-
B|-----------------------
G|-----------------------
D|-----------------------
A|-----------------------
E|-----------------------

Paste any tab in acousterr's tab maker and we'll play it !!!
Now supports capo and sound effects for vibrato/pull-off/hammer/bends/mutes etc !!! Checkout help section

Guitar Tabs for Saco Tu Demonio Para Cogermelo





E|-----------------------------------------------3x
B|--------------------------15b16-15-14-16-15-14-
G|-----15b16-15-14-16-15-14----------------------
D|-----------------------------------------------
A|-----------------------------------------------
E|--0--------------------------------------------


E|--------------13-------------------
B|-----13b15-14----13-12----12-13----
G|--12-------------------12-------12b
D|-----------------------------------
A|-----------------------------------
E|-----------------------------------

tabs and chords, guitar tabs, music transcription, music technology, deep learning, music information retrieval, transcribe into tabs & chords, chordify, music renditions, songsterr, reverbnation, tabulature, bollywood chords, ultimate guitar, yousician, guitar lessons, acoustic guitar, electric guitar, guitar tuner, 911 tabs