Guitar Tabs for Sach Keh Raha Hai Deewana - Kk Tabs

(/) Slide Up  (\) Slide Down  (h) Hammer On  (p) Pull Off  (b) Bend (r) Release (v) Vibrato

Tabs for Song : Sach Keh Raha Hai Deewana

Sach Keh Raha Hai Deewana Dil Dil Na Kisi Se Lagaana
E|--8--8--7--7--5--5--4---4/5--5-----7--8--8--7--7--5--5--4---4/5--5--
B|--------------------------------------------------------------------
G|--------------------------------------------------------------------
D|--------------------------------------------------------------------
A|--------------------------------------------------------------------
E|--------------------------------------------------------------------

Jhoothe Hai Yaar Ke Vaade Saare Jhoothi Hai Pyaar Ki Kasmein
E|--8--8--7--7--5--5--4---4/5--5---7/10--8\7--8--8--7--7--5--5--4---4/5--5--
B|--------------------------------------------------------------------------
G|--------------------------------------------------------------------------
D|--------------------------------------------------------------------------
A|--------------------------------------------------------------------------
E|--------------------------------------------------------------------------

Maine Har Lamha Jisse Chaaha, Jisse Pooja
E|--10-10-10-9--10----10-9--10-12/13-10----10-9--10-12/13-10-
B|-----------------------------------------------------------
G|-----------------------------------------------------------
D|-----------------------------------------------------------
A|-----------------------------------------------------------
E|-----------------------------------------------------------

Ussi Ne Yaaron Mera Dil Toda Toda, Tanha Tanha Chhoda
E|--13-13-12-12-10-10-8--8--7--5--7--5--7--5--5--7--5--5---7/10-8--7--
B|--------------------------------------------------------------------
G|--------------------------------------------------------------------
D|--------------------------------------------------------------------
A|--------------------------------------------------------------------
E|--------------------------------------------------------------------

Again Repeat Sach Keh Raha Hai Deewana.....
tabs and chords, guitar tabs, music contests, music covers, songsterr, reverbnation, renditions, tabulature, bollywood chords, ultimate guitar, yousician, guitar lessons, torrins, fender, gibson, acoustic guitar, electric guitar, youtube covers, gootar, guitar tuner, A-Z tabs, 911 tabs