Guitar Tabs for Max Coveri - Running In The 90's

(/) Slide Up  (\) Slide Down  (h) Hammer On  (p) Pull Off  (b) Bend (r) Release (v) Vibrato (x) Muted

Tabs for Song : 
BPM : 90

[Intro] 
E|--------------------------------------------
B|--5--4-----5--4-----5--4--3--2--1--2--3--4--
G|--------------------------------------------
D|--------------------------------------------
A|--------------------------------------------
E|--------------------------------------------

E|--------------------------------------------
B|--5--4-----5--4-----5--4--3--2--1--2--3--4--
G|--------------------------------------------
D|--------------------------------------------
A|--------------------------------------------
E|--------------------------------------------

E|--------------------------------------------
B|--5--4-----5--4-----5--4--3--2--1--2--3--4--
G|--------------------------------------------
D|--------------------------------------------
A|--------------------------------------------
E|--------------------------------------------

E|--------------------------------------------
B|--5--4-----5--4-----5--4--3--2--1--2--3--4--
G|--------------------------------------------
D|--------------------------------------------
A|--------------------------------------------
E|--------------------------------------------

E|-----------0--------------------0-----------
B|--------------3--1-----------------3--1-----
G|--2-----2-----------2--2-----2-----------2--
D|-----2--------------------2-----------------
A|--------------------------------------------
E|--------------------------------------------

E|--------------------------------------
B|--1--0-----1--0-----1--0-----3--0-----
G|--------0--------0--------0--------0--
D|--------------------------------------
A|--------------------------------------
E|--------------------------------------

E|-----------0--------------------0-----------
B|--------------3--1-----------------3--1-----
G|--2-----2-----------2--2-----2-----------2--
D|-----2--------------------2-----------------
A|--------------------------------------------
E|--------------------------------------------

E|--------------
B|--1-----1--0--
G|--------------
D|--------------
A|--------------
E|--------------

E|-----------0--------------------0-----------
B|--------------3--1-----------------3--1-----
G|--2-----2-----------2--2-----2-----------2--
D|-----2--------------------2-----------------
A|--------------------------------------------
E|--------------------------------------------

E|--------------------------------------
B|--1--0-----1--0-----1--0-----3--0-----
G|--------0--------0--------0--------0--
D|--------------------------------------
A|--------------------------------------
E|--------------------------------------

E|-----------0--------------------0-----------
B|--------------3--1-----------------3--1-----
G|--2-----2-----------2--2-----2-----------2--
D|-----2--------------------2-----------------
A|--------------------------------------------
E|--------------------------------------------

E|--------------------------
B|--5--4--3--2--1--2--3--4--
G|--------------------------
D|--------------------------
A|--------------------------
E|--------------------------
[Base]
E|-----------0--------------------0-----------
B|--------------3--1-----------------3--1-----
G|--2-----2-----------2--2-----2-----------2--
D|-----2--------------------2-----------------
A|--------------------------------------------
E|--------------------------------------------

E|--------------------------------------
B|--1--0-----1--0-----1--0-----3--0-----
G|--------0--------0--------0--------0--
D|--------------------------------------
A|--------------------------------------
E|--------------------------------------

E|-----------0--------------------0-----------
B|--------------3--1-----------------3--1-----
G|--2-----2-----------2--2-----2-----------2--
D|-----2--------------------2-----------------
A|--------------------------------------------
E|--------------------------------------------

E|-----------------0--0--0--------
B|--1--1--1--3--3-----------3--3--
G|--------------------------------
D|--------------------------------
A|--------------------------------
E|--------------------------------

E|-----------0--------------------0-----------
B|--------------3--1-----------------3--1-----
G|--2-----2-----------2--2-----2-----------2--
D|-----2--------------------2-----------------
A|--------------------------------------------
E|--------------------------------------------

E|--------------------------------------
B|--1--0-----1--0-----1--0-----3--0-----
G|--------0--------0--------0--------0--
D|--------------------------------------
A|--------------------------------------
E|--------------------------------------

E|-----------0--------------------0-----------
B|--------------3--1-----------------3--1-----
G|--2-----2-----------2--2-----2-----------2--
D|-----2--------------------2-----------------
A|--------------------------------------------
E|--------------------------------------------
 
E|--------------------------
B|--5--4--3--2--1--2--3--4--
G|--------------------------
D|--------------------------
A|--------------------------
E|--------------------------
[Estrofa]
E|-----------------------------------------------------------------
B|-----------0--1--------------0--1--0-----------------------------
G|-----2--2--------------2--2-----------2--2-----------0-----------
D|--------------------------------------------------3-----3--2-----
A|-----------------------------------------------------------------
E|-----------------------------------------------------------------

E|-----------------------------------------------------------------
B|-----------0--1--------------0--1--0-----------------------------
G|-----2--2--------------2--2-----------2--2-----------0-----------
D|--------------------------------------------------3-----3--2-----
A|-----------------------------------------------------------------
E|-----------------------------------------------------------------

E|--------------------0-----------------
B|--1--1--0--1--1--3-----3--1--3--1-----
G|--------------------------------------
D|--------------------------------------
A|--------------------------------------
E|--------------------------------------

E|--------------------------------------
B|--------------------------------------
G|--2--2--0--2--2--0--0-----0-----0-----
D|-----------------------2-----2--------
A|--------------------------------------
E|--------------------------------------

E|--------------------0-----------------
B|--1--1--0--1--1--3-----3--1--3--1-----
G|--------------------------------------
D|--------------------------------------
A|--------------------------------------
E|--------------------------------------

E|-----------------------------
B|--------------------0--1--3--
G|--2--2--0--2--2--2-----------
D|-----------------------------
A|-----------------------------
E|-----------------------------
[Estribillo]
E|--0--0--------------------------------------3--0--------
B|--------3--3--3--1-----------1--3--3--1--3--------------
G|--------------------------2-----------------------------
D|--------------------------------------------------------
A|--------------------------------------------------------
E|--------------------------------------------------------

E|--3--1--0--0-----------------------------------------0--------
B|--------------3--3--3--1-----------3--1--3--1--3--1-----------
G|--------------------------------------------------------------
D|--------------------------------------------------------------
A|--------------------------------------------------------------
E|--------------------------------------------------------------

E|--3--1--0--0--------------------------------------3--0--------
B|--------------3--3--3--1-----------1--3--3--1--3--------------
G|--------------------------------2-----------------------------
D|--------------------------------------------------------------
A|--------------------------------------------------------------
E|--------------------------------------------------------------

E|--3--1--0--0-----------------------------------------0-----0--3--0-----
B|--------------3--3--3--1-----------3--1--3--1--3--------3--------------
G|-----------------------------------------------------------------------
D|-----------------------------------------------------------------------
A|-----------------------------------------------------------------------
E|-----------------------------------------------------------------------
[Outro] 
E|-----------0--------------------0-----------
B|--------------3--1-----------------3--1-----
G|--2-----2-----------2--2-----2-----------2--
D|-----2--------------------2-----------------
A|--------------------------------------------
E|--------------------------------------------

E|--------------------------------------
B|--1--0-----1--0-----1--0-----3--0-----
G|--------0--------0--------0--------0--
D|--------------------------------------
A|--------------------------------------
E|--------------------------------------

E|-----------0--------------------0-----------
B|--------------3--1-----------------3--1-----
G|--2-----2-----------2--2-----2-----------2--
D|-----2--------------------2-----------------
A|--------------------------------------------
E|--------------------------------------------

E|-----------------0--0--0--------
B|--1--1--1--3--3-----------3--3--
G|--------------------------------
D|--------------------------------
A|--------------------------------
E|--------------------------------

E|-----------0--------------------0-----------
B|--------------3--1-----------------3--1-----
G|--2-----2-----------2--2-----2-----------2--
D|-----2--------------------2-----------------
A|--------------------------------------------
E|--------------------------------------------

E|--------------------------------------
B|--1--0-----1--0-----1--0-----3--0-----
G|--------0--------0--------0--------0--
D|--------------------------------------
A|--------------------------------------
E|--------------------------------------

E|-----------0--------------------0-----------
B|--------------3--1-----------------3--1-----
G|--2-----2-----------2--2-----2-----------2--
D|-----2--------------------2-----------------
A|--------------------------------------------
E|--------------------------------------------

Song lyrics here 
E|--------------------------
B|--5--4--3--2--1--2--3--4--
G|--------------------------
D|--------------------------
A|--------------------------
E|--------------------------

E|--------5--------5--
B|--------------------
G|-----2--------2-----
D|--------------------
A|--------------------
E|--------------------

Use manual mode to free up cursor. Paste any tab in acousterr tab maker and we'll play it !!!
tabs and chords, guitar tabs, music transcription, music technology, deep learning, music information retrieval, transcribe into tabs & chords, chordify, music renditions, songsterr, reverbnation, tabulature, bollywood chords, ultimate guitar, yousician, guitar lessons, acoustic guitar, electric guitar, guitar tuner, 911 tabs