Runaway - Mo Lowda - Guitar Tabs

(/) Slide Up  (\) Slide Down  (h) Hammer On  (p) Pull Off  (b) Bend (r) Release (v) Vibrato (x) Muted

Tabs for Song : 
BPM : 200

   Am9            Cmaj7 
E|--7--------------7--
B|--8--------------8--
G|--9--------------9--
D|--10-------------10-
A|--0-----------------
E|-----------------8--

Chorus
E|--------------------------------------------------------------------------------------------------
B|--------------------------------------------------------------------------------------------------
G|--------------------------------------------------------------------------------------------------
D|--------------------------------------------------------------------------------------------------
A|--------------------------------------------------------------------------------------------------
E|--8--8--8--8--8--8--8--8--8--8--8--8--8--8--8--8--8--8--8--8--8--8--8--8--8--8--8--8--8--8--8--8--

E|--------------------------------------------------------------------------
B|--------------------------------------------------------------------------
G|--------------------------------------------------------------------------
D|--------------------------------------------------------------------------
A|--7--7--7--7--7--7--7--7--7--7--7--7--7--7--7--7-----------------7--------
E|-----------------------------------------------------------8-----------8--

E|--------------------------------------------------
B|--------------------------------------------------
G|--------------------------------------------------
D|--7--7--5--5-----------------------------5--5--5--
A|--------------7--7--5--5--------5--5--7-----------
E|--------------------------8--8--------------------

E|--------------------------------------------------------------------------
B|--------------------------------------------------------------------------
G|--------------------------------------------------------------------------
D|--7--7--5--5-----------------------------5--5--5--------------------------
A|--------------7--7--5--5--------5--5--7--------------------------7--------
E|--------------------------8--8-----------------------------8-----------8--

Guitar Interlude 
E|--12----15/---17-------12----------------12----------------12----------------------
B|--13----13/------------13----15----17----13----13----12----13----12h13p12h13-------
G|--14----14/------------12----12----------14----14----12----12-------------------14-
D|-----------------------------------------------------------------------------------
A|-----------------------------------------------------------------------------------
E|-----------------------------------------------------------------------------------

I know you said you're leaving (or Am - C Changes)
E|-----------------------------------------------------------------------------------------------
B|-----------------------------------------------------------------------------------------------
G|-----------------------------------------------------------------------------------------------
D|-----------------------------------------------------------------------------------------------
A|--------------------------------------------7--7--7--7--7--7--7--7--7--7--7--7--7--7--7--7--7--
E|--8--8--8--8--8--8--8--8--8--8--8--8--8--8-----------------------------------------------------

Build-up
E|-----7--7--------7--7-----7--7--------7--7--------
B|-----8--8--------8--8-----8--8--------8--8--------
G|--9--------9--9--------9--------9--9--------9--9--
D|--10-------10-10-------10-------10-10-------10-10-
A|--0--------0--0-----------------------------------
E|-----------------------8--------8--8--------8--8--

Solo 
E|-----------------------------------------------------------------
B|-----------------------------------------------------------------
G|---7b-7b-7b7--7--7--7--5--5--4---5h4--------------5--5--7--9--9--
D|--------------------------------------5---5/7--7-----------------
A|-----------------------------------------------------------------
E|-----------------------------------------------------------------

E|-----------8-----8-----10-12-12-12-10p8-----10p8-----10p8-----10/12-8--8-----------7--
B|--8---8/10----10----10-------------------10-------10-------10-------------10-10----8--
G|-----------------------------------------------------------------------------------9--
D|-----------------------------------------------------------------------------------10-
A|-----------------------------------------------------------------------------------0--
E|--------------------------------------------------------------------------------------


tabs and chords, guitar tabs, music transcription, music technology, deep learning, music information retrieval, transcribe into tabs & chords, chordify, music renditions, songsterr, reverbnation, tabulature, bollywood chords, ultimate guitar, yousician, guitar lessons, acoustic guitar, electric guitar, guitar tuner, 911 tabs