Bass Tabs for Ruined

(/) Slide Up  (\) Slide Down  (h) Hammer On  (p) Pull Off  (b) Bend (r) Release (v) Vibrato (x) Muted

Tabs for Song : 
BPM : 200

Song lyrics here 
G|---------------------------------------------------------------------------------------------------------------------------------------------------------------------------------------------------------------------------------------------------------------------------------------------------------------------------------------------------------------------------------------------------------------------------
D|--------------------------------------------------------------------------------------------------------------------------------------------------------------------------------------------------------------------------------------------------------------------------------------------------------------------------------------------------------------------------------------------------------------------------
A|-----------0--2--2-----------------0--2--2--------5-----------5-----------5-----------5--5--4--4-----------0--2--2-----------------0--2--2-----------5-----------5-----------5-----------5--5--4--4-----------0--2--2--------------------0--2--2-----------5-----------5-----------5-----------5--5--4--4-----------0--2--2-----------------0--2--2--------------5-----------5-----------5--------------5--5--4--4--------
E|---7/----------------------7/------------------5-----------5-----------5-----------5---------------7/----------------------7/---------------------5-----------5-----------5-----------5---------------7/------------------------7-----------------------5-----------5-----------5-----------5---------------7/----------------------7/------------------------5-----------5-----------5--------------5--------------------

Song lyrics here 
G|-----------------------------------------------------------------------------------------------------7--------------------------------------------------------------------------------------------------------7-----
D|-----9--9--7--7-----------------------------------------9--9--7--7--6--6--7--------------------7--------9--------9--9--7--7--------------------------------------9--9--7--7--7--6--7--------------------7--------9--
A|-----------------9--9--7--7--------------------------------------------------9-----9-----7--9-----9--------------------------9--9--7--7-----------------------------------------------9-----9-----7--9-----9--------
E|--7--------------------------10-10-9--9--7--7--7--7--7--------------------------------------------------------7--------------------------10-10-9--9--7--7--7--7-----------------------------------------------------


G|------------------------------------------------------------------------------------------------9--7--------------------------------------------------------------------------------------------------------9--7-----------------------------------------------------------------------------------------------------------7-----
D|-----------------------------------------------------------------------------------------------------9--7--------------------------------------------------------------------------------------------------------9--7-----------------------------------------------------------------------------------------------7--------9--
A|-----------0--2--2-----------------0--2--2-----------5-----------5--------------5-----------------------------------------0--2--2-----------------0--2--2-----------5-----------5-----------5-----------------------------------------0--2--2--------------------0--2--2-----------------5--------9-----9-----7--9-----9--------
E|---7/----------------------7/------------------5--------------5-----------5--------------5---------------------7/-------------------------7/---------------------5-----------5-----------5-----------5------------------------7/-------------------------7/------------------------5-----------5--------------------------------

G|--------------------------------------------------------------------------------------------------------------------------------------------------------------------------------------------------------------------------------------------------------------------------------------------------------------------------------------------------
D|-----------------------------------------------------------------------------------------------------------------------------------------------------------------------------------------------------------------------------------------------------------------------------------------------------------------4--------------------------------
A|-----------------------------7--9--7------5h---7--7--7--7-----------------7--9--7---------7h9--9--9--9--------------7--9--7------5h7--5--5--5--5--------------5--7--5-----------------------------7--9--7---------5h7--7--7--7--------------7--9--7---------7h9--9--9--9--------------7--9--7---------5h7--5--------5-----------------------------
E|--7-----7--7--7--7--------10----------10----7-----------------------7--10----------10-7-----------------------7--10----------10-------------------------7--10----------10-9--7--7--7--7-----7--10----------10-7-----------------------7--10----------10-7-----------------------7--10----------10-7-----------7--------0--0--0--0--0--0--0--0--0--


G|--------------------------------------------------------------------------------------9--7--------------------------------------------------------------------------------------------------9--7-----------------------------------------------------------------------------------------------------------7---------------------------
D|--------------------------------------------------------------------------------------------9--7--------------------------------------------------------------------------------------------------9--7-----------------------------------------------------------------------------------------------7--------9-----------------------
A|-----------0--2--2-----------------0--2--2--------5-----------5-----------5-----------------------------------0--2--2--------------------0--2--2--------5-----------5-----------5-----------------------------------0--2--2-----------------------0--2--2--------------5--------9--------9-----7--9-----9--------------------0--2--2--
E|---7/----------------------7/------------------5-----------5-----------5-----------5------------------7/-------------------------7/------------------5-----------5-----------5--------5------------------------7/-------------------------7/------------------------5--------5-----------------------------------------7--------------





Use manual mode to free up cursor. Paste any tab in acousterr tab maker and we'll play it !!!
tabs and chords, guitar tabs, music transcription, music technology, deep learning, music information retrieval, transcribe into tabs & chords, chordify, music renditions, songsterr, reverbnation, tabulature, bollywood chords, ultimate guitar, yousician, guitar lessons, acoustic guitar, electric guitar, guitar tuner, 911 tabs