R-type (hitomi No Iro) - Janne Da Arc - Guitar Tabs

E. Guitar II
    
                                                                                                                                                                                                                                                                                                                                                                                                                                                                                                                                                                                                 
E|-------------------------|
B|-----------------4-------|
G|-----------------5-------|
D|-----------------5-------|
A|-------------------------|
E|-------------------------|

    
                                                                                                                                                                                                                                                                                                                                                                                                                                                                                                                                                                                                                                                                                                                                                                                                                                                                                                                                                                                                                                                                                                                                                                                              
E|-------------------------|-----------------------|
B|-----4--4--4--4--4--4--4-|---4--4--4--4--4--4--4-|
G|-----5--5--5--5--5--5--5-|---5--5--5--5--5--5--5-|
D|-----5--5--5--5--5--5--5-|---5--5--5--5--5--5--5-|
A|-------------------------|-----------------------|
E|-------------------------|-----------------------|

    
                                                                                                                                                                                                                                                                                                                                                                                                                                                                                                                                                                                                                                                                                                                                                                                                                                                                                                                                                                                                                                                                                                                                                                                              
E|-------------------------|-----------------------|
B|-----4--4--4--4--4--4--4-|---4--4--4--4--4--4--4-|
G|-----5--5--5--5--5--5--5-|---5--5--5--5--5--5--5-|
D|-----5--5--5--5--5--5--5-|---5--5--5--5--5--5--5-|
A|-------------------------|-----------------------|
E|-------------------------|-----------------------|

    
                                                                                                                                                                                                                                                                                                                                                                                                                                                                                                                                                                                                                                                                                                                                                                                                                                                                                                                                                                                                                                                                                                                                                                                              
E|-------------------------|-----------------------|
B|-----4--4--4--4--4--4--4-|---4--4--4--4--4--4--4-|
G|-----5--5--5--5--5--5--5-|---5--5--5--5--5--5--5-|
D|-----5--5--5--5--5--5--5-|---5--5--5--5--5--5--5-|
A|-------------------------|-----------------------|
E|-------------------------|-----------------------|

    
                                                                                                                                                                                                                                                                                                                                                                                                                                                                                                                                                                                                                                                                                                                                                                                                                                                                                                                                                                                                                                                                                                                                                                                              
E|-----------------------6-|---6--6--6--6--6--6----|
B|-----4--4--4--4--4--4--4-|---4--4--4--4--4--4--4-|
G|-----5--5--5--5--5--5--5-|---5--5--5--5--5--5--5-|
D|-----5--5--5--5--5--5--5-|---5--5--5--5--5--5--5-|
A|-------------------------|-----------------------|
E|-------------------------|-----------------------|

    
                                                                                                                                                                                                                                                                                                                                                                                                                                                                                                                                                                                                                                                                                                                                                                                                                                                                                                                                                                                                                                                                                                                                                                                              
E|-------------------------|-----------------------|
B|-----4--4--4--4--4-----4-|---x--x--4--4--4-----4-|
G|-----5--5--5--5--5-----5-|---x--x--5--5--5-----5-|
D|-----5--5--5--5--5-----5-|---x--x--5--5--5-----5-|
A|-------------------------|-----------------------|
E|-------------------------|-----------------------|

    
                                                                                                                                                                                                                                                                                                                                                                                                                                                                                                                                                                                                                                                                                                                                                                                                                                                                                                                                                                                                                                                                                                                                                                                              
E|-------------------------|-----------------------|
B|-----x--x--4--4--4-----4-|---x--x--4--4--4--4--4-|
G|-----x--x--5--5--5-----5-|---x--x--5--5--5--5--5-|
D|-----x--x--5--5--5-----5-|---x--x--5--5--5--5--6-|
A|-------------------------|-----------------------|
E|-------------------------|-----------------------|

    
                                                                                                                                                                                                                                                                                                                                                                                                                                                                                                                                                                                                                                                                                                                                                                                                                                                                                                                                                                                                                                                                                                                                                                                              
E|-------------------------|-----------------------|
B|-----4--x--x--x--4-----4-|---6-----4--x--x--x--4-|
G|-----5--x--x--x--5-----5-|---5-----5--x--x--x--5-|
D|-----6--x--x--x--6-----6-|---6-----6--x--x--x--6-|
A|-------------------------|-----------------------|
E|-------------------------|-----------------------|

    
                                                                                                                                                                                                                                                                                                                                                                                                                                                                                                                                                                                                                                                                                                                                                                                                                                                                                                                                                                                                                                                                                                                                                                                              
E|-------------------------|-----------------------|
B|-----4--x--x--x--4-----4-|---6-----4--x--x--x--4-|
G|-----5--x--x--x--5-----5-|---5-----5--x--x--x--5-|
D|-----6--x--x--x--6-----6-|---6-----6--x--x--x--5-|
A|-------------------------|-----------------------|
E|-------------------------|-----------------------|

    
                                                                                                                                                                                                                                                                                                                                                                                                                                                                                                                                                                                                                                                                                                                                                                                                                                                                                                                                                                                                                                                                                                                                                                                              
E|-------------------------|-----------------------|
B|-----4--4--4--4--4-----4-|---x--x--4--4--4-----4-|
G|-----5--5--5--5--5-----5-|---x--x--5--5--5-----5-|
D|-----5--5--5--5--5-----5-|---x--x--5--5--5-----5-|
A|-------------------------|-----------------------|
E|-------------------------|-----------------------|

    
                                                                                                                                                                                                                                                                                                                                                                                                                                                                                                                                                                                                                                                                                                                                                                                                                                                                                                                                                                                                                                                                                                                                                                                              
E|-------------------------|-----------------------|
B|-----x--x--4--4--4-----4-|---x--x--4--4--4--4--4-|
G|-----x--x--5--5--5-----5-|---x--x--5--5--5--5--5-|
D|-----x--x--5--5--5-----5-|---x--x--5--5--5--5--6-|
A|-------------------------|-----------------------|
E|-------------------------|-----------------------|

    
                                                                                                                                                                                                                                                                                                                                                                                                                                                                                                                                                                                                                                                                                                                                                                                                                                                                                                                                                                                                                                                                                                                                                                                              
E|-------------------------|-----------------------|
B|-----4--x--x--x--4-----4-|---6-----4--x--x--x--4-|
G|-----5--x--x--x--5-----5-|---5-----5--x--x--x--5-|
D|-----6--x--x--x--6-----6-|---6-----6--x--x--x--6-|
A|-------------------------|-----------------------|
E|-------------------------|-----------------------|

    
                                                                                                                                                                                                                                                                                                                                                                                                                                                                                                                                                                                                                                                                                                                                                                                                                                                                                                                                                                                                                                                                                                                                                                                              
E|-------------------------|-----------------------|
B|-----4--x--x--x--4-----4-|---6-----4--x--x--x--4-|
G|-----5--x--x--x--5-----5-|---5-----5--x--x--x--5-|
D|-----6--x--x--x--6-----6-|---6-----6--x--x--x--5-|
A|-------------------------|-----------------------|
E|-------------------------|-----------------------|

    
    A                                                                                                                                                                                                                                                                                                                                                                                                                                                                                                                                                                                             A                                                                                                                                                                                                                                                                                                                                                                                                                                                                                                                                                                                             
E|-------------------------|-----------------------|
B|-----4--4--4--4--3-----4-|---4--4--4--4--4-----4-|
G|-----5--5--5--5--5-----5-|---5--5--5--5--5-----5-|
D|-----5--5--5--5--5-----5-|---5--5--5--5--5-----6-|
A|-------------------------|-----------------------|
E|-------------------------|-----------------------|

    
                                                                                                                                                                                                                                                                                                                                                                                                                                                                                                                                                                                                                                                                                                                                                                                                                                                                                                                                                                                                                                                                                                                                                                                              
E|-------------------------|-----------------------|
B|--------x--x--x--x--x--4-|------x--x--x--x--x--4-|
G|--------x--x--x--x--x--5-|------x--x--x--x--x--5-|
D|--------x--x--x--x--x--6-|------x--x--x--x--x--5-|
A|-------------------------|-----------------------|
E|-------------------------|-----------------------|

    
                                                                                                                                                                                                                                                                                                                                                                                                                                                                                                                                                                                                                                                                                                                                                                                                                                                                                                                                                                                                                                                                                                                                                                                              
E|-------------------------|---------------------2-|
B|-----4--4--4--4--3-----4-|------4--4--4--4-----3-|
G|-----5--5--5--5--5-----5-|------5--5--5--5-----2-|
D|-----5--5--5--5--5-----5-|------5--5--5--5-------|
A|-------------------------|-----------------------|
E|-------------------------|-----------------------|

    
                                                                                                                                                                                                                                                                                                                                                                                                                                                                                                                                                                                                                                                                                                                                                                                                                                                                                                                                                                                                                                                                                                                                                                                              
E|--------2--2-----------3-|-----------------------|
B|--------3--3-----------3-|------x--x--x--x--x--4-|
G|--------2--2-----------4-|------x--x--x--x--x--5-|
D|-------------------------|------x--x--x--x--x--5-|
A|-------------------------|-----------------------|
E|-------------------------|-----------------------|

    
                                                                                                                                                                                                                                                                                                                                                                                                                                                                                                                                                                                                                                                                                                                                                                                                                                                                                                                                                                                                                                                                                                                                                                                              
E|-------------------------|-----------------------|
B|-----4--4--4--4--3-----4-|---4--4--4--4--4-----4-|
G|-----5--5--5--5--5-----5-|---5--5--5--5--5-----5-|
D|-----5--5--5--5--5-----5-|---5--5--5--5--5-----6-|
A|-------------------------|-----------------------|
E|-------------------------|-----------------------|

    
                                                                                                                                                                                                                                                                                                                                                                                                                                                                                                                                                                                                                                                                                                                                                                                                                                                                                                                                                                                                                                                                                                                                                                                              
E|-------------------------------|-----------------------------|
B|-----4--x--x--x--x--x--x-----x-|x--x--x--x--x--x--x--x--x--4-|
G|-----5--x--x--x--x--x--x-----x-|x--x--x--x--x--x--x--x--x--5-|
D|-----6--x--x--x--x--x--x-----x-|x--x--x--x--x--x--x--x--x--5-|
A|-------------------------------|-----------------------------|
E|-------------------------------|-----------------------------|

    
                                                                                                                                                                                                                                                                                                                                                                                                                                                                                                                                                                                                                                                                                                                                                                                                                                                                                                                                                                                                                                                                                                                                                                                              
E|-------------------------|-----------------------|
B|-----4--4--4--4--3-----4-|---4--4--4--4--4-----4-|
G|-----5--5--5--5--5-----5-|---5--5--5--5--5-----5-|
D|-----5--5--5--5--5-----5-|---5--5--5--5--5-----4-|
A|-------------------------|-----------------------|
E|-------------------------|-----------------------|

    
                                                                                                                                                                                                                                                                                                                                                                                                                                                                                                                                                                                                                                                                                                                                                                                                                                                                                                                                                                                                                                                                                                                                                                                              
E|-----------------------3-|---3--x--x--x--x--x----|
B|-----4--4--4--4--4-----3-|---3--x--x--x--x--x----|
G|-----5--5--5--5--5-----4-|---4--x--x--x--x--x----|
D|-----4--4--4--4--4-------|---------------------6-|
A|-------------------------|---------------------6-|
E|-------------------------|---------------------4-|

    
    B                                                                                                                                                                                                                                                                                                                                                                                                                                                                                                                                                                                             B                                                                                                                                                                                                                                                                                                                                                                                                                                                                                                                                                                                             
E|-------------------------------|-----------------------------|
B|-------------------------------|-----------------------------|
G|-------------------------------|-----------------------------|
D|-----6--x--x--x--x--x--x--x--8-|---8--x--x--x--x--x--x--x--9-|
A|-----6--x--x--x--x--x--x--x--8-|---8--x--x--x--x--x--x--x--8-|
E|-----4--x--x--x--x--x--x--x--6-|---6--x--x--x--x--x--x--x--7-|

    
                                                                                                                                                                                                                                                                                                                                                                                                                                                                                                                                                                                                                                                                                                                                                                                                                                                                                                                                                                                                                                                                                                                                                                                              
E|-------------------------------|-----------------------|
B|-------------------------------|-----------------------|
G|-------------------------------|-----------------------|
D|-----9--x--x--x--x--x--x--x--10|---x--10----10-10----6-|
A|-----8--x--x--x--x--x--x--x--10|---x--10----10-10----6-|
E|-----7--x--x--x--x--x--x--x--8-|---x--8-----8--8-----4-|

    
                                                                                                                                                                                                                                                                                                                                                                                                                                                                                                                                                                                                                                                                                                                                                                                                                                                                                                                                                                                                                                                                                                                                                                                              
E|-------------------------------|-----------------------------|
B|-------------------------------|-----------------------------|
G|-------------------------------|-----------------------------|
D|--------x--x--x--x--x--x--x--8-|---8--x--x--x--x--x--x--x--x-|
A|--------x--x--x--x--x--x--x--8-|---8--x--x--x--x--x--x--x--x-|
E|--------x--x--x--x--x--x--x--6-|---6--x--x--x--x--x--x--x--x-|

    
                                                                                                                                                                                                                                                                                                                                                                                                                                                                                                                                                                                                                                                                                                                                                                                                                                                                                                                                                                                                                                                                                                                                                                                              
E|-------------------------|-----------------------|
B|-------------------------|-----------------------|
G|-------------------------|-----------------------|
D|-------------------------|-----------------------|
A|-------------------------|-----------------------|
E|--8--------7-------------|6--------5--0)p12------|

    
                                                                                                                                                                                                                                                                                                                                                                                                                                                                                                                                                                                                                                                                                                                                                                                                                                                                                                                                                                                                                                                                                                                                                                                              
E|-------------------------------|-----------------------------|
B|-------------------------------|-----------------------------|
G|-------------------------------|-----------------------------|
D|--6-----x--x--x--x--x--x--x--8-|---8--x--x--x--x--x--x--x--9-|
A|--6-----x--x--x--x--x--x--x--8-|---8--x--x--x--x--x--x--x--8-|
E|--4-----x--x--x--x--x--x--x--6-|---6--x--x--x--x--x--x--x--7-|

    
                                                                                                                                                                                                                                                                                                                                                                                                                                                                                                                                                                                                                                                                                                                                                                                                                                                                                                                                                                                                                                                                                                                                                                                              
E|-------------------------------|-----------------------|
B|-------------------------------|-----------------------|
G|-------------------------------|-----------------------|
D|-----9--x--x--x--x--x--x--x--10|---10-10----10-10----6-|
A|-----8--x--x--x--x--x--x--x--10|---10-10----10-10----6-|
E|-----7--x--x--x--x--x--x--x--8-|---8--8-----8--8-----4-|

    
                                                                                                                                                                                                                                                                                                                                                                                                                                                                                                                                                                                                                                                                                                                                                                                                                                                                                                                                                                                                                                                                                                                                                                                              
E|-------------------------------|-----------------------------|
B|-------------------------------|-----------------------------|
G|-------------------------------|-----------------------------|
D|-----6--x--x--x--x--x--x--x--3-|---3--x--x--x--x--x--x--x--x-|
A|-----6--x--x--x--x--x--x--x--3-|---3--x--x--x--x--x--x--x--x-|
E|-----4--x--x--x--x--x--x--x--1-|---1--x--x--x--x--x--x--x--x-|

    
                                                                                                                                                                                                                                                                                                                                                                                                                                                                                                                                                                                                                                                                                                                                                                                                                                                                                                                                                                                                                                                                                                                                                                                              
E|-------------------------|-----------------------|
B|-------------------------|---------------------4-|
G|-------------------------|---------------------5-|
D|--------------3--3-------|5--5--5--5-----------5-|
A|--6--6--------5--5-------|2--2--2--2-------------|
E|--4--4-------------------|-----------------------|

    
    C                                                                                                                                                                                                                                                                                                                                                                                                                                                                                                                                                                                             C                                                                                                                                                                                                                                                                                                                                                                                                                                                                                                                                                                                             
E|-------------------------|-----------------------|
B|--------------3----------|------------4----------|
G|--------------3----------|------------3----------|
D|--------------3----------|------------5----------|
A|-------------------------|-----------------------|
E|-------------------------|-----------------------|
tabs and chords, guitar tabs, music transcription, music technology, deep learning, music information retrieval, transcribe into tabs & chords, chordify, music renditions, songsterr, reverbnation, tabulature, bollywood chords, ultimate guitar, yousician, guitar lessons, acoustic guitar, electric guitar, guitar tuner, 911 tabs