Bass Tabs for Roy Orbison - Pretty Woman

Roy Orbison - Pretty Woman

Intro
G|-----------------------------------
D|-----------------------------------
A|--------------5-----------------5--
E|--0--0--4--7--------0--0--4--7-----
 
G|--------------------------
D|-----------------4--------  4x
A|--------------5-----7--5--
E|--0--0--4--7--------------

Verse
G|--------------------------------------------------------------------------
D|--------------------------------------------------------------------------
A|--------4--7--9--9-----9--------------4--9--9-----9--5--5-----5--5-----5--
E|--5--5--------------9-----5-----5--5-----------9-----------5--------5-----

G|--------------------------------------------------
D|--------------------------------------------------
A|--7--7--------7--7--------7--7--------7--7--------
E|--------7--7--------7--7--------7--7--------7--7--

G|--------------------------
D|-----------------4--------  4x
A|--------------5-----7--5--
E|--0--0--4--7--------------

Tension
G|-----------------------------------
D|-------7-5-3-2-------2-------------
A|-5-7-8---------5-3-3---3-2-------7-
E|---------------------------5-7-8---

G|-----------------------------
D|-------7-5-3-2-----2-5---2-5-
A|-5-7-8---------5-3-----3-----
E|-----------------------------

G|--------------------------------------
D|-------7-5-3-2-------2----------------
A|-5-7-8---------5-3-3---3-2-------7----
E|---------------------------5-7-8------

G|-----------------------------
D|-------7-5-3-2-------2-------
A|-5-7-8---------5-3-3---3-2---
E|-----------------------------

G|--------------------------------------------
D|--------------------------------------------
A|-----4-7-8-9--9---9-7-5--5-8-8--7-5-4-------
E|-5-5------------9---------------------7-----

G|--------------------------------
D|--------------------------------
A|-----4-7-8-9--9---9-7-5--5-8-8--
E|-5-5------------9---------------


G|-----------------------------------
D|-----------4----------------4------
A|---------5---7-5----------5---7-5--
E|-0-0-4-7----------0-0-4-7----------

Ending
G|-----------------------------------
D|-----------4----------------4------   4x
A|---------5---7-5----------5---7-5--
E|-0-0-4-7----------0-0-4-7----------

G|-----------------------
D|-----------4-----------
A|---------5---7-5-------
E|-0-0-4-7----------5-5--
tabs and chords, guitar tabs, music transcription, music technology, deep learning, music information retrieval, transcribe into tabs & chords, chordify, music renditions, songsterr, reverbnation, tabulature, bollywood chords, ultimate guitar, yousician, guitar lessons, acoustic guitar, electric guitar, guitar tuner, 911 tabs