Bass Tabs for Roupa Nova - Whisky À Go-go

Roupa Nova - Whisky à Go-Go

Intro/Verse

G|--------------------
D|--------------------  12x
A|--7--7--------5--7--
E|--------7--7--------

G|--------------------
D|--------------------
A|--12-12-------10-12-
E|--------12-12-------

G|--------------------------------
D|--------------------------------
A|--7--7--------5--7--7--------5--
E|--------7--7-----------7--7-----

G|--------------------------------
D|--------------------------------
A|--12-12-------10-12-12-------10-
E|--------12-12----------12-12----


G|--------------------------------
D|--------------------------------
A|--7--7--------5--7--7--------5--
E|--------7--7-----------7--7-----

G|--------------------------------------------------
D|--------------------------------------------------
A|-----9--------7-----7--7--------5--7--7--------5--
E|--7-----7--5-----5--------7--7-----------7--7-----


G|--------------------------------------------------------------------
D|--------------------------------------------------------------------
A|--------9--10-9--------7--9--7--7--7--------7-----------------------
E|--7--7-----------5--5-----------------7--7-----7--7--7--7--7--7--7--


Chorus
G|-----------------------------------------------------------------------------------------
D|-----------------------------------------------------------------------------------------
A|--7--7--7-----------7--7-----------------7--------------9--7--7-----7--------------------
E|-----------9--9--9--------9--9--5--5--5-----5--7--7--7-----------7-----7--7--7--7--7--7--

Last Part Chorus
G|--------------------------------
D|--------------------------------
A|-----------------------5--6--7--
E|--5--5--7--7--------------------


tabs and chords, guitar tabs, music transcription, music technology, deep learning, music information retrieval, transcribe into tabs & chords, chordify, music renditions, songsterr, reverbnation, tabulature, bollywood chords, ultimate guitar, yousician, guitar lessons, acoustic guitar, electric guitar, guitar tuner, 911 tabs