Guitar Tabs for Roses Are Free

(/) Slide Up  (\) Slide Down  (h) Hammer On  (p) Pull Off  (b) Bend (r) Release (v) Vibrato (x) Muted

Tabs for Song : 
BPM : 99

Take a wrinkled raisin...
E|--------------------------------------------------
B|--------------------------------------------------
G|--------3-----3-----3---5b7--7---7p5--5--3--------
D|---3h5-----5-----5--------------------------3-----
A|-----------------------------------------------1--
E|--------------------------------------------------

Push it into third...
E|-----------------------------------------------------------
B|--------------------------------------6--------------------
G|--------3------5b7---7p5--3---5b7--7------5p3-----3--------
D|---3h5-----5-----------------------------------5-----3-----
A|--------------------------------------------------------1--
E|-----------------------------------------------------------

Eat Plenty of lansagna...
E|--------------------------------------------------------
B|--------------------------------------------------------
G|--------3-----3-----3---5b7--7---7p5--5--3--------------
D|---3h5-----5-----5--------------------------5-----------
A|-----------------------------------------------1--------
E|--------------------------------------------------------

Resist all the urges...
E|--------------------------------------------------------------------------------------------------
B|--------------------------------------------6-----------8-----------9-----------10----------11----
G|--------3-----3-----3---5b7---7p5--3--5--------5-----------7-----------8-----------9-----------10-
D|---3h5-----5-----5-----------------------7---------7/9---------9/10-------10/11-------11/12-------
A|--------------------------------------------------------------------------------------------------
E|--------------------------------------------------------------------------------------------------


SOLO
E|-----------------------------------------------------------------------------------------------------------
B|-----------------------------------------------------------------------------------------------------------
G|---5b7---7p5--3------3h5--3------3h5--3-----------3-----------3-----3---5b7---7p5--------------------------
D|-----------------5-----------5-----------5---3h5-----5---3h5-----5------------------3/-5\3--------3--------
A|---------------------------------------------------------------------------------------------3/5-----5--1--
E|-----------------------------------------------------------------------------------------------------------

E|--------------------------------------------------------------------------------------------\
B|-----------------------------------------------------------------3--3-----------------------
G|---5b7---7p5--3------3h5--3------3h5--3-----------3-----3-----3--------5--5--3--3-----------
D|-----------------5-----------5-----------5---3h5-----5-----5-----------------------3--3-----
A|-----------------------------------------------------------------------------------------1--
E|--------------------------------------------------------------------------------------------

Use manual mode to free up cursor. Paste any tab in acousterr tab maker and we'll play it !!!
tabs and chords, guitar tabs, music transcription, music technology, deep learning, music information retrieval, transcribe into tabs & chords, chordify, music renditions, songsterr, reverbnation, tabulature, bollywood chords, ultimate guitar, yousician, guitar lessons, acoustic guitar, electric guitar, guitar tuner, 911 tabs