Bass Tabs for Rosanna - Toto

(/) Slide Up  (\) Slide Down  (h) Hammer On  (p) Pull Off  (b) Bend (r) Release (v) Vibrato (x) Muted

Tabs for Song : 

All I want to do when I wake up in the morning is see you eyes  Rosanna, Rosanna
G|--------------------------------------------
D|--------------------------------------------
A|--------------------------------------------
E|--0--3--3--3--3-----------------------------

Never thought that a girl like you could ever care for me, Rosanna
G|-----------------------------------------------------------------
D|-----------------------------------------------------------------
A|-----------------------------------------------------------------
E|--1--1--------0--0-----------------------------------------3--3--

All I want to do in the middle of the evening is hold you tight       I didn't know you were looking for more..
G|--------------------------------------------------------------------------------
D|--------------------------------------------------------------------------------
A|--------------------------------------------------------------------6--6--5--5--
E|--1--1-----1--1-----------------------------------------------------------------

Not quite a year since she went away, Rosanna yeah 
G|-----------------------------------------------------
D|-----------------------------------------------------
A|-----------------------------------6--6--------------
E|--3--3--3--3-----6--6--------------------6--6--1--1--

Meet you all the way, meet you all the way   x2
G|--------------------------------------------
D|--------------------------------------------
A|--3-----0--3--0--3--3-----6--6--------------
E|--------------------------------6--6--1--1--


All I want to do when I wake up in the morning is see you eyes
Rosanna, Rosanna
Never thought that a girl like you could ever care for me, Rosanna
All I want to do in the middle of the evening is hold you tight
Rosanna, Rosanna
I didn't know you were looking for more than I could ever be
Not quite a year since she went away, Rosanna 
Now she's gone and I have to say
Meet you all the way, meet you all the way
Meet you all the way, meet you all the way, Rosanna, yeah 
Meet you all the way, meet you all the way
Meet you all the way, meet you all the way, Rosanna, yeah
I can see your face still shining through the window on the other side
Rosanna, Rosanna
I didn't know that a girl like you could make me feel so sad, Rosanna
All I want to tell you is now you'll never ever have to compromise
Rosanna, Rosanna
I never thought that losing you could ever hurt so bad
Not quite a year since she went away, Rosanna, yeah 
Now she's gone and I have to say
Meet you all the way, meet you all the way
Meet you all the way, meet you all the way, Rosanna, yeah 
Meet you all the way, meet you all the way
Meet you all the way, meet you all the way, Rosanna, yeah
Not quite a year since she went away, Rosanna, yeah
Now she's gone and I have to say
Meet you all the way, meet you all the way
Meet you all the way, meet you all the way, Rosanna, yeah 
Meet you all the way, meet you all the way
Meet you all the way, meet you all the way, Rosanna, yeah
Meet you all the way, meet you all the way
Meet you all the way, meet you all the way, Rosanna, yeah 
Meet you all the way, meet you all the way
Meet you all the way, meet you all the way, Rosanna, yeah
tabs and chords, guitar tabs, music transcription, music technology, deep learning, music information retrieval, transcribe into tabs & chords, chordify, music renditions, songsterr, reverbnation, tabulature, bollywood chords, ultimate guitar, yousician, guitar lessons, acoustic guitar, electric guitar, guitar tuner, 911 tabs