Guitar Tabs for Rondo

(/) Slide Up  (\) Slide Down  (h) Hammer On  (p) Pull Off  (b) Bend (r) Release (v) Vibrato (x) Muted

Tabs for Song : 

Song lyrics here
E|--------------------------------------------------------------
B|--------------------------------------------------------------
G|-----------------------------0-----------------------0--------
D|-----------------2-----------------------4--------------------X2
A|-----------------------3-----------3-----------5-----------5--
E|--------------3-----3-----3-----3-----5-----5-----5-----5-----

Song lyrics here
E|--------------------------------------------------------------
B|--------------------------------------------------------------
G|-----------------------------0-----------------------3--------
D|-----------------2-----------------------4-----------------4--
A|-----------------------3-----------3-----------5--------------
E|--------------3-----3-----3-----3-----5-----5-----5-----5-----

E|--------------------------------------------
B|--------------------------------------------
G|--------------------------------------------
D|--0--2--2--2--5--5--5--7--7--7--9--9--9-----
A|--------------------------------------------
E|--------------------------------------------

E|--------------------------------------------------------------------
B|-----------5-----------5-----------5-----------5--------------------
G|-----4-----------7-----------4-----------7--------------------------
D|--5-----5-----5-----5-----5-----5-----5-----5-----------------------
A|--------------------------------------------------------------------
E|--------------------------------------------------------------------
E|-----------------------------------------
B|-----------------------------------------
G|-----------------------------------------
D|--2-----------------------------4--
A|--3-----------------------------5-----
E|--3-----------------------------5--------

B|--------------------------------------------
B|--------------------------------------------
G|--------------------------------------------
D|--0--2--2--2--5--5--5--7--7--7--9--9--9-----
A|--------------------------------------------
E|--------------------------------------------


E|--------------------------------------------------------------------
B|-----------5-----------5-----------5-----------5--------------------
G|-----4-----------7-----------4-----------7--------------------------
D|--5-----5-----5-----5-----5-----5-----5-----5-----------------------
A|--------------------------------------------------------------------
E|--------------------------------------------------------------------
E|-----------------------------------------
B|-----------------------------------------
G|-----------------------------------------
D|--------2-----------------------------4--
A|-----3-----------------------------5-----
E|--3-----------------------------5--------
 
E|-----------------------------------------------------
B|--------------------------------5-----------0--------
G|--------0--------0-----4--0-----------7--0-----------
D|--0--2-----2--5-----5--------5-----5-----------------
A|-----------------------------------------------------
E|-----------------------------------------------------

E|--------------------------------------------------------------------
B|-----------5-----------5-----------5-----------5--------------------
G|-----4-----------7-----------4-----------7--------------------------
D|--5-----5-----5-----5-----5-----5-----5-----5-----------------------
A|--------------------------------------------------------------------
E|--------------------------------------------------------------------
E|-----------------------------------------
B|-----------------------------------------
G|-----------------------------------------
D|--------------------------------4--
A|--------------------------------5-----
E|--3-----------------------------5--------


E|-----------------------------------------------------
B|--------------------------------5-----------0--------
G|--------0--------0-----4--0-----------7--0-----------
D|--0--2-----2--5-----5--------5-----5-----------------
A|-----------------------------------------------------
E|-----------------------------------------------------


E|--------------------------------------------------------------------
B|-----------5-----------5-----------5-----------5--------------------
G|-----4-----------7-----------4-----------7--------------------------
D|--5-----5-----5-----5-----5-----5-----5-----5-----------------------
A|--------------------------------------------------------------------
E|--------------------------------------------------------------------
E|-----------------------------------------
B|-----------------------------------------
G|-----------------------------------------
D|--2-----------------------------4--
A|--3-----------------------------5-----
E|--3-----------------------------5--------

E|-----------------------------------------------------
B|--------------------------------5-----------0--------
G|--------0--------0-----4--0-----------7--0-----------
D|--0--2-----2--5-----5--------5-----5-----------------
A|-----------------------------------------------------
E|-----------------------------------------------------
E|-----------------------------------------------------------
B|-----------------------------------------------------------
G|-----------------------------0-----------------------3-----
D|-----------------2-----------------------4-----------------
A|-----------------------3-----------3-----------5-----------
E|--------------3-----3-----3-----3-----5-----5-----5-----5--

B|--------------------------------------------
B|--------------------------------------------
G|--------------------------------------------
D|--0--2--2--2--5--5--5--7--7--7--9--9--9-----
A|--------------------------------------------
E|--------------------------------------------

E|--------------------------------------------------------------------
B|-----------5-----------5-----------5-----------5--------------------
G|-----4-----------7-----------4-----------7--------------------------
D|--5-----5-----5-----5-----5-----5-----5-----5-----------------------
A|--------------------------------------------------------------------
E|--------------------------------------------------------------------
E|-----------------------------------------
B|-----------------------------------------
G|-----------------------------------------
D|--2-----------------------------4--
A|--3-----------------------------5-----
E|--3-----------------------------5--------

B|--------------------------------------------
B|--------------------------------------------
G|--------------------------------------------
D|--0--2--2--2--5--5--5--7--7--7--9--9--9-----
A|--------------------------------------------
E|--------------------------------------------

E|--------------------------------------------------------------------
B|-----------5-----------5-----------5-----------5--------------------
G|-----4-----------7-----------4-----------7--------------------------
D|--5-----5-----5-----5-----5-----5-----5-----5-----------------------
A|--------------------------------------------------------------------
E|--------------------------------------------------------------------
E|-----------------------------------------
B|-----------------------------------------
G|-----------------------------------------
D|--2-----------------------------4--
A|--3-----------------------------5-----
E|--3-----------------------------5--------

E|-----------------------------------------------------
B|--------------------------------5-----------0--------
G|--------0--------0-----4--0-----------7--0-----------
D|--0--2-----2--5-----5--------5-----5-----------------
A|-----------------------------------------------------
E|-----------------------------------------------------

E|--------------------------------------------------------------------
B|-----------5-----------5-----------5-----------5--------------------
G|-----4-----------7-----------4-----------7--------------------------
D|--5-----5-----5-----5-----5-----5-----5-----5-----------------------
A|--------------------------------------------------------------------
E|--------------------------------------------------------------------
E|-----------------------------------------
B|-----------------------------------------
G|-----------------------------------------
D|--2-----------------------------4--
A|--3-----------------------------5-----
E|--3-----------------------------5--------

E|-----------------------------------------------------
B|--------------------------------5-----------0--------
G|--------0--------0-----4--0-----------7--0-----------
D|--0--2-----2--5-----5--------5-----5-----------------
A|-----------------------------------------------------
E|-----------------------------------------------------
E|-----------------------------------------------------------
B|-----------------------------------------------------------
G|-----------------------------0-----------------------3-----
D|-----------------2-----------------------4-----------------
A|-----------------------3-----------3-----------5-----------
E|--------------3-----3-----3-----3-----5-----5-----5-----5--

E|--------------------------------------------------------------------
B|-----------5-----------5-----------5-----------5--------------------
G|-----4-----------7-----------4-----------7--------------------------
D|--5-----5-----5-----5-----5-----5-----5-----5-----------------------
A|--------------------------------------------------------------------
E|--------------------------------------------------------------------
E|-----------------------------------------
B|-----------------------------------------
G|-----------------------------------------
D|--2-----------------------------4--
A|--3-----------------------------5-----
E|--3-----------------------------5--------

E|-----------------------------------------------------
B|--------------------------------5-----------0--------
G|--------0--------0-----4--0-----------7--0-----------
D|--0--2-----2--5-----5--------5-----5-----------------
A|-----------------------------------------------------
E|-----------------------------------------------------
E|-----------------------------------------------------------
B|-----------------------------------------------------------
G|-----------------------------0-----------------------3-----
D|-----------------2-----------------------4-----------------
A|-----------------------3-----------3-----------5-----------
E|--------------3-----3-----3-----3-----5-----5-----5-----5--

E|---------------------------------------------------------
B|--------------------------------5-----------0------------
G|--------0--------0-----4--0-----------7--0---------------
D|--0--2-----2--5-----5--------5-----5---------------------
A|---------------------------------------------------------
E|---------------------------------------------------------

E|----12-----------------------------------------------------
B|----12-----------------------------------------------------
G|----12-----------------------------------------------------HARM
D|----12-----------------------------------------------------
A|----12-----------------------------------------------------
E|----12-----------------------------------------------------

tabs and chords, guitar tabs, music transcription, music technology, deep learning, music information retrieval, transcribe into tabs & chords, chordify, music renditions, songsterr, reverbnation, tabulature, bollywood chords, ultimate guitar, yousician, guitar lessons, acoustic guitar, electric guitar, guitar tuner, 911 tabs