Guitar Tabs for Rolling in the deep

Tabs for Song : Rolling in the deep

There's a fire starting in my heart
E|--------------------------------------
B|--0-----------------0--0--------------
G|------2\4--2--------------2--0--------
D|--------------2--2--------------2-----
A|--------------------------------------
E|--------------------------------------

Reaching a fever pitch, and it's bringing me out the dark
E|-----------------------------------------
B|--0--3--0--------------------------------
G|-----------2--0--------0--0--------------
D|-----------------2--2--------2--0--2-----
A|-----------------------------------------
E|-----------------------------------------

Finally, I can see you crystal clear
E|--------------------------------------
B|--0-----------------0--0--------------
G|------2\4--2--------------2--0--------
D|--------------2--2--------------2-----
A|--------------------------------------
E|--------------------------------------

Go ahead and sell me out, and I'll lay your ship bare
E|-----------------------------------------
B|--0--3--0--------------------------------
G|-----------2--0--------0--0--------------
D|-----------------2--2--------2--0--2-----
A|-----------------------------------------
E|-----------------------------------------

See how I'll leave with every piece of you
E|--------------------------------------
B|--0-----------------0--0--------------
G|------2\4--2--------------2--0--------
D|--------------2--2--------------2-----
A|--------------------------------------
E|--------------------------------------

Don't underestimate the things that I will do
E|-----------------------------------------
B|--0--3--0--------------------------------
G|-----------2--0--------0--0--------------
D|-----------------2--2--------2--0--2-----
A|-----------------------------------------
E|-----------------------------------------

There's a fire starting in my heart
E|--------------------------------------
B|--0-----------------0--0--------------
G|------2\4--2--------------2--0--------
D|--------------2--2--------------2-----
A|--------------------------------------
E|--------------------------------------

Reaching a fever pitch, and it's bringing me out the dark
E|-----------------------------------------
B|--0--3--0--------------------------------
G|-----------2--0--------0--0--------------
D|-----------------2--2--------2--0--2-----
A|-----------------------------------------
E|-----------------------------------------

The scars of your love 
E|-----------------------
B|-----0-----------------
G|--------2--0-----------
D|--2-----------2--2-----
A|-----------------------
E|-----------------------

remind me of us
E|-----------------------
B|-----0-----------------
G|--------2--0-----------
D|--2-----------2--2-----
A|-----------------------
E|-----------------------

They keep me thinking
E|-----------------------
B|-----0-----------------
G|--------2--0-----------
D|--2-----------2--2-----
A|-----------------------
E|-----------------------

that we almost had it all
E|--------------------------
B|--------------------------
G|--------0-----0-----------
D|--2--2-----2-----2--2-----
A|--------------------------
E|--------------------------

The scars of your love,
E|-----------------------
B|-----0-----------------
G|--------2--0-----------
D|--2-----------2--2-----
A|-----------------------
E|-----------------------

they leave me breathless
E|-----------------------
B|-----0-----------------
G|--------2--0-----------
D|--2-----------2--2-----
A|-----------------------
E|-----------------------

I can't help feeling
E|-----------------------
B|-----0-----------------
G|--------2--0-----------
D|--2-----------2--2-----
A|-----------------------
E|-----------------------

We could have had it all
E|-----------------------2--------
B|--0--3--0--3--0---3\5-----3-----
G|--------------------------------
D|--------------------------------
A|--------------------------------
E|--------------------------------

Rolling in the deep
E|-----------------------2--------
B|--0--3--0--3--0---3\5-----3-----
G|--------------------------------
D|--------------------------------
A|--------------------------------
E|--------------------------------

You had my heart inside of your hand
E|-----------------------2--------
B|--0--3--0--3--0---3\5-----3-----
G|--------------------------------
D|--------------------------------
A|--------------------------------
E|--------------------------------

And you played it to the beat
E|-----------------------------------
B|--0--0---0h1-----0--0--1-----0-----
G|--------------------------2--------
D|-----------------------------------
A|-----------------------------------
E|-----------------------------------
tabs and chords, guitar tabs, music contests, music covers, songsterr, reverbnation, renditions, tabulature, bollywood chords, ultimate guitar, yousician, guitar lessons, torrins, fender, gibson, acoustic guitar, electric guitar, youtube covers, gootar, guitar tuner, A-Z tabs, 911 tabs