Roll On - Living End - Guitar Tabs

Lead Guitar
    
                                                                                                                                                                                                                                                                                                                                                                                                                                                                                                                                                                                                                                                                                                                                                                                                                                                                                                                                                                                                                                                                                                                                                                                              
E|----------------------------|--------------------------|
B|----------------------------|------------(10---(10-----|
G|----------------------------|------------9-----9-------|
D|-----------------------7--7-|7--7--11-7--7--7--7--7--7-|
A|-----------------------0--0-|0--0--0--0--0--0--0--0--0-|
E|----------------------------|--------------------------|

    
                                                                                                                                                                                                                                                                                                                                                                                                                                                                                                                                                                                                                                                                                                                                                                                                                                                                                                                                                                                                                                                                                                                                                                                              
E|----------------------------|--------------------------|
B|--------------(10---(10-----|------------(10---(10-----|
G|--------------9-----9-------|------------9-----9-------|
D|--7--7--11-7--7--7--7--7--7-|7--7--11-7--7--7--7--7--7-|
A|--0--0--0--0--0--0--0--0--0-|0--0--0--0--0--0--0--0--0-|
E|----------------------------|--------------------------|

    
                                                                                                                                                                                                                                                                                                                                                                                                                                                                                                                                                                                                                                                                                                                                                                                                                                                                                                                                                                                                                                                                                                                                                                                              
E|----------------------------|--------------------------|
B|--------------(10---(10-----|------------(10---(10-----|
G|--------------9-----9-------|------------9-----9-------|
D|--7--7--11-7--7--7--7--7--7-|7--7--11-7--7--7--7--7--7-|
A|--0--0--0--0--0--0--0--0--0-|0--0--0--0--0--0--0--0--0-|
E|----------------------------|--------------------------|

    Roll on Roll on 
                                                                                                                                                                                                                                                                                                                                                                                                                                                                                                                                                                                                                                                                                                                                                                                                                                                                                                                                                                                                                                                                                                                                                                                              
E|----------------------------|--------------------------|
B|--------------(10---(10-----|------------(10---(10-----|
G|--------------9-----9-------|------------9-----9-------|
D|--7--7--11-7--7--7--7--7--7-|7--7--11-7--7--7--7--7--7-|
A|--0--0--0--0--0--0--0--0--0-|0--0--0--0--0--0--0--0--0-|
E|----------------------------|--------------------------|

    Roll on Roll on 
                                                                                                                                                                                                                                                                                                                                                                                                                                                                                                                                                                                                                                                                                                                                                                                                                                                                                                                                                                                                                                                                                                                                                                                              
E|-------------------------|--------------------------|
B|--------------(10---(10--|------------(10---(10-----|
G|--------------9-----9----|------------9-----9-------|
D|--7--7--11-7--7--7--7--7-|7--7--11-7--7--7--7--7--7-|
A|--0--0--0--0--0--0--0--0-|0--0--0--0--0--0--0--0--0-|
E|-------------------------|--------------------------|

    Roll on Roll on 
                                                                                                                                                                                                                                                                                                                                                                                                                                                                                                                                                                                                                                                                                                                                                                                                                                                                                                                                                                                                                                                                                                                                                                                              
E|----------------------------|--------------------------|
B|--------------(10---(10-----|------------(10---(10-----|
G|--------------9-----9-------|------------9-----9-------|
D|--7--7--11-7--7--7--7--7--7-|7--7--11-7--7--7--7--7--7-|
A|--0--0--0--0--0--0--0--0--0-|0--0--0--0--0--0--0--0--0-|
E|----------------------------|--------------------------|

    Roll on Roll on 
                                                                                                                                                                                                                                                                                                                                                                                                                                                                                                                                                                                                                                                                                                                                                                                                                                                                                                                                                                                                                                                                                                                                                                                              
E|-------------------------|-----------------------|
B|--------------(10--------|-----------------------|
G|--------------9----------|5-----5----------------|
D|--7--7--11-7--7--7-------|5-----5-----3--3--3----|
A|--0--0--0--0--0--0---7/--|3-----3--0--3--3--3--0-|
E|-------------------------|---------0--1--1--1--0-|

    heads held high Our heads held high Our 
                                                                                                                                                                                                                                                                                                                                                                                                                                                                                                                                                                                                                                                                                                                                                                                                                                                                                                                                                                                                                                                                                                                                                                                              
E|-------------------------|------------3-----3----|
B|-------------------------|------------0-----0----|
G|--5-----5----------------|5-----5-----0-----0----|
D|--5-----5-----3--3--3----|5-----5-----0-----0----|
A|--3-----3--0--3--3--3--0-|3-----3--0--2-----2----|
E|-----------0--1--1--1--0-|---------0--3-----3--3-|

    dreams up in the skyy dreams up in the skyy 
                                                                                                                                                                                                                                                                                                                                                                                                                                                                                                                                                                                                                                                                                                                                                                                                                                                                                                                                                                                                                                                                                                                                                                                              
E|--------------1-----3----|-----------------------|
B|--------------1-----0----|-----------------------|
G|--2--2--------2-----0----|5-----5----------------|
D|--2--2--------3-----0----|5-----5-----3--3--3----|
A|--0--0-----0--------(2)--|3-----3--0--3--3--3--0-|
E|--------3--0--------(3)--|---------0--1--1--1--0-|

    heads held high Our heads held high Our 
                                                                                                                                                                                                                                                                                                                                                                                                                                                                                                                                                                                                                                                                                                                                                                                                                                                                                                                                                                                                                                                                                                                                                                                              
E|-------------------------|------------3-----3----|
B|-------------------------|------------0-----0----|
G|--5-----5----------------|5-----5-----0-----0----|
D|--5-----5-----3--3--3----|5-----5-----0-----0----|
A|--3-----3--0--3--3--3--0-|3-----3--0--2-----2----|
E|-----------0--1--1--1--0-|---------0--3-----3--(3)

    dreams up in the skyydreams up in the skyy
                                                                                                                                                                                                                                                                                                                                                                                                                                                                                                                                                                                                                                                                                                                                                                                                                                                                                                                                                                                                                                                                                                                                                                                              
E|--------------1-----3----|--------------------------|
B|--------------1-----0----|------------(10---(10(10(10
G|--2--2--------2-----0----|------------9-----9-------|
D|--2--2--------3-----0----|7--7--11-7--7--7--7--7--7-|
A|--0--0-----0--------(2)--|0--0--0--0--0--0--0--0--0-|
E|--------3--0--------(3)--|--------------------------|

    
                                                                                                                                                                                                                                                                                                                                                                                                                                                                                                                                                                                                                                                                                                                                                                                                                                                                                                                                                                                                                                                                                                                                                                                              
E|----------------------------|--------------------------|
B|--(10(10(10(10(10---(10(10(10(10(10(10(10(10---(10(10(10
G|--------------9-----9-------|------------9-----9-------|
D|--7--7--11-7--7--7--7--7--7-|7--7--11-7--7--7--7--7--7-|
A|--0--0--0--0--0--0--0--0--0-|0--0--0--0--0--0--0--0--0-|
E|----------------------------|--------------------------|

    The The 
                                                                                                                                                                                                                                                                                                                                                                                                                                                                                                                                                                                                                                                                                                                                                                                                                                                                                                                                                                                                                                                                                                                                                                                              
E|-------------------------|-----------------------|
B|--(10(10(10(10(10---(10--|------------(2)(2)(2)--|
G|--------------9-----9----|---2-----(2)2--2--2--2-|
D|--7--7--11-7--7--7--7----|---2-----2--2--2--2--2-|
A|--0--0--0--0--0--0--0--3-|3--0-----0--0--0--0--0-|
E|-------------------------|-----------------------|

    docks of Melbourne town The docks of Melbourne town The 
                                                                                                                                                                                                                                                                                                                                                                                                                                                                                                                                                                                                                                                                                                                                                                                                                                                                                                                                                                                                                                                                                                                                                                                              
E|-------------------------|-----------------------|
B|-------------------------|------------------3----|
G|-----2--------------2----|------5-----2--2--2----|
D|-----2--4-----4--4--2----|5--5--5-----0--0--0----|
A|-----0--0-----0--0--0--0-|3--3--3--0-----------0-|
E|-----------------------0-|---------------------(0)

    stroong They stroong They 
                                                                                                                                                                                                                                                                                                                                                                                                                                                                                                                                                                                                                                                                                                                                                                                                                                                                                                                                                                                                                                                                                                                                                                                              
E|-------------------------|-----------------------|
B|-------------------------|-----------------------|
G|--2----------------------|------------2----------|
D|--2--(2)4-----2-----4----|---2-----(2)2-----2----|
A|--0--(0)0--(0)0-----0--(3)3--0-----(0)0-----0--4-|
E|-------------------------|-----------------------|

    union had to say There's union had to say There's 
                                                                                                                                                                                                                                                                                                                                                                                                                                                                                                                                                                                                                                                                                                                                                                                                                                                                                                                                                                                                                                                                                                                                                                                              
E|-------------------------|-----------------------|
B|-------------------------|------------------3----|
G|-----------(2)------2----|------5-----2--2--2----|
D|-----4-----2--4--4--2----|5--5--5-----0--0--0----|
A|-----0-----0--0--0--0--0-|3--3--3--0-----------0-|
E|-----------------------0-|---------------------(0)

    not enough pay Say not enough pay Say 
                                                                                                                                                                                                                                                                                                                                                                                                                                                                                                                                                                                                                                                                                                                                                                                                                                                                                                                                                                                                                                                                                                                                                                                              
E|-------------------------|-----------------------|
B|-------------------------|-----------------------|
G|--2-----------2----------|5-----5----------------|
D|--2-----4-----2----------|5-----5-----3--3--3----|
A|--0-----0--(0)0----------|3-----3--0--3--3--3--0-|
E|--------------------(8)--|---------0--1--1--1--0-|

    heads held high Our heads held high Our 
                                                                                                                                                                                                                                                                                                                                                                                                                                                                                                                                                                                                                                                                                                                                                                                                                                                                                                                                                                                                                                                                                                                                                                                              
E|-------------------------|------------3-----3----|
B|-------------------------|------------0-----0----|
G|--5-----5----------------|5-----5-----0-----0----|
D|--5-----5-----3--3--3----|5-----5-----0-----0----|
A|--3-----3--0--3--3--3--0-|3-----3--0--2-----2----|
E|-----------0--1--1--1--0-|---------0--3-----3--3-|

    dreams up in the skyy dreams up in the skyy 
                                                                                                                                                                                                                                                                                                                                                                                                                                                                                                                                                                                                                                                                                                                                                                                                                                                                                                                                                                                                                                                                                                                                                                                              
E|--------------1-----3----|-----------------------|
B|--------------1-----0----|-----------------------|
G|--2--2--------2-----0----|5-----5----------------|
D|--2--2--------3-----0----|5-----5-----3--3--3----|
A|--0--0-----0--------(2)--|3-----3--0--3--3--3--0-|
E|--------3--0--------(3)--|---------0--1--1--1--0-|

    heads held high Our heads held high Our 
                                                                                                                                                                                                                                                                                                                                                                                                                                                                                                                                                                                                                                                                                                                                                                                                                                                                                                                                                                                                                                                                                                                                                                                              
E|-------------------------|------------3-----3----|
B|-------------------------|------------0-----0----|
G|--5-----5----------------|5-----5-----0-----0----|
D|--5-----5-----3--3--3----|5-----5-----0-----0----|
A|--3-----3--0--3--3--3--0-|3-----3--0--2-----2----|
E|-----------0--1--1--1--0-|---------0--3-----3--3-|

    dreams up in the skydreams up in the sky
                                                                                                                                                                                                                                                                                                                                                                                                                                                                                                                                                                                                                                                                                                                                                                                                                                                                                                                                                                                                                                                                                                                                                                                              
E|--------------1-----3----|--------------------------|
B|--------------1-----0----|------------(10---(10-----|
G|--2--2--------2-----0----|------------9-----9-------|
D|--2--2--------3-----0----|7--7--11-7--7--7--7--7--7-|
A|--0--0-----0--------(2)--|0--0--0--0--0--0--0--0--0-|
E|--------3--0--------(3)--|--------------------------|

    
                                                                                                                                                                                                                                                                                                                                                                                                                                                                                                                                                                                                                                                                                                                                                                                                                                                                                                                                                                                                                                                                                                                                                                                              
E|----------------------------|--------------------------|
B|--------------(10---(10-----|------------(10---(10-----|
G|--------------9-----9-------|------------9-----9-------|
D|--7--7--11-7--7--7--7--7--7-|7--7--11-7--7--7--7--7--7-|
A|--0--0--0--0--0--0--0--0--0-|0--0--0--0--0--0--0--0--0-|
E|----------------------------|--------------------------|

    We'll We'll 
                                                                                                                                                                                                                                                                                                                                                                                                                                                                                                                                                                                                                                                                                                                                                                                                                                                                                                                                                                                                                                                                                                                                                                                              
E|-------------------------|--------------------------|
B|--------------(10---(10--|--------------------------|
G|--------------9-----9----|------2--------2-----2--2-|
D|--7--7--11-7--7--7--7----|------2--------2-----2--2-|
A|--0--0--0--0--0--0--0--0-|------0-----(0)0-----0--0-|
E|-----------------------(0)-0p5----------------------|

    whole thing quiet The whole thing quiet The 
                                                                                                                                                                                                                                                                                                                                                                                                                                                                                                                                                                                                                                                                                                                                                                                                                                                                                                                                                                                                                                                                                                                                                                                              
E|-------------------------|-----------------------|
B|-------------------------|------------------3----|
G|--2--2-------------------|------5-----2--2--2----|
D|--2--2--4-----4--4--2----|5--5--5-----0--0--0----|
A|--0--0--0-----0--0--0--(0)3--3--3--0-----------0-|
E|-----------------------(0)---------------------(0)

    wagefuelled riot 'Cause wagefuelled riot 'Cause 
                                                                                                                                                                                                                                                                                                                                                                                                                                                                                                                                                                                                                                                                                                                                                                                                                                                                                                                                                                                                                                                                                                                                                                                              
E|-------------------------|-----------------------|
B|-------------------------|-----------------------|
G|--(2)---------2----------|---2--------2-----2--(2)
D|--2-----4-----2-----4----|---2--------2-----2--2-|
A|--0--(0)0-----0-----0--3-|---0-----(0)0-----0--0-|
E|-------------------------|-----------------------|

    always standing there always standing there 
                                                                                                                                                                                                                                                                                                                                                                                                                                                                                                                                                                                                                                                                                                                                                                                                                                                                                                                                                                                                                                                                                                                                                                                              
E|-------------------------|-----------------------|
B|-------------------------|------------------3----|
G|--(2)2---------2p--------|------5-----2--2--2----|
D|--2--2--4--4---2p4--2--0-|5--5--5-----0--0--0----|
A|--0--0--0--0---0p--------|3--3--3--0-----------0-|
E|-------------------------|---------------------(0)

    From the outside From the outside 
                                                                                                                                                                                                                                                                                                                                                                                                                                                                                                                                                                                                                                                                                                                                                                                                                                                                                                                                                                                                                                                                                                                                                                                              
E|-------------------------|-----------------------|
B|--------------------3----|-----------------------|
G|--------5-----2--2--2----|------5--------7--7----|
D|--5--5--5-----0--0--0----|5--5--5-----7--7--7----|
A|--3--3--3--0-----------0-|3--3--3--0--5--5--5--0-|
E|-----------------------(0)---------------------0-|

    world world 
                                                                                                                                                                                                                                                                                                                                                                                                                                                                                                                                                                                                                                                                                                                                                                                                                                                                                                                                                                                                                                                                                                                                                                                              
E|--(7)-----------------------------|--------------------------------|
B|--8-------------------------------|--------------------------------|
G|--------9--9-----------7---9p7----|7-------------------------------|
D|------------------7p9-----------9-|---9--8--7--5-----7---5/--------|
A|----------------------------------|---------------7-----------2----|
E|----------------------------------|---------------------------0----|

    
                                                                                                                                                                                                                                                                                                                                                                                                                                                                                                                                                                                                                                                                                                                                                                                                                                                                                                                                                                                                                                                                                                                                                                                              
E|-------------------------------------------|-----------------------------|
B|-------------------------------------------|------6----------------------|
G|-----------------------------------5--5--5-|5--5--------------------5--7-|
D|--------------------7--7--7--7--7----------|---------------------7-------|
A|-----8--8--8--8--8--------------12---------|-----------------------------|
E|-------------------------------------------|-----------------------------|

    
                                                                                                                                                                                                                                                                                                                                                                                                                                                                                                                                                                                                                                                                                                                                                                                                                                                                                                                                                                                                                                                                                                                                                                                              
E|--------5----------------------------|-----------------------------------|
B|------------8p5------8p5-------------|5----------------------------------|
G|--7--------------7---------7p5-------|----7p5------7p5-------------------|
D|-------------------------------------|---------7---------7p5--7----------|
A|-------------------------------------|-----------------------------------|
E|-------------------------------------|-----------------------------------|

About Roll On (The Living End song) : The Living End's second single is based on the 1998 Australian waterfront dispute . The track's title was based on a 1998 waterfront dispute in Australia . The song reached number 15 in the ARIA Charts . It was also used by professional wrestler Nigel McGuinness as his entrance music . The song was used in National Lampoon It was released in 2001. It was released as part of album Roll On. The genre is punk rock. The track was release in 2001. The track has an affiliation to the band(s) - The Living End.

About The Living End : The Living End are an Australian punk rock band from Melbourne . The band rose to fame in 1997 after the release of their EP Second Solution / Prisoner of Society . Two of which reached the No. 4 on the Australian ARIA Singles Chart . The Band was nominated 27 times and won five awards at the Australian ARIA Music Awards . In October 2010 their debut album was listed in the book "100 Best Australian Albums" The Living End blend a range of styles (punk, rockabilly and flat out rock) with great success . Australian musicologist Ian McFarlane described the group as "one of Australia’s The Living End The group has many notable artists like Chris Cheney,Scott Owen,Andy Strachan. Their music is influenced by genres - punk rock pop punk rockabilly alternative rock.

About Roll On (The Living End album) : Roll On is the second studio album by Australian punk rock band The Living End . It was released in Australia and New Zealand in November 2000 . The album was the band's last major work to feature drummer Travis Demsey . In the downtime following the album's release and subsequent tour, he would leave Roll On officially achieved 2x platinum status in Australia in November 2007 It had an affiliation to bands - The Living End. Its music is influenced by genres - punk rock , punkabilly.

tabs and chords, guitar tabs, music transcription, music technology, deep learning, music information retrieval, transcribe into tabs & chords, chordify, music renditions, songsterr, reverbnation, tabulature, bollywood chords, ultimate guitar, yousician, guitar lessons, acoustic guitar, electric guitar, guitar tuner, 911 tabs