Guitar Tabs for Roke na ruke naina

Tabs for Song : Roke na ruke naina

tu jo nazron ke saamne kal hoga nahi

E|--------------------------------------------------------
B|--2--2-----3--2--0--------------2-----3--2--0-----------
G|--------------------2--2--2--2-----------------2--2-----
D|--------------------------------------------------------
A|--------------------------------------------------------
E|--------------------------------------------------------

tujhko dekhe bin mein

E|--------------------------
B|--2--2--3--2--0-----------
G|-----------------2--2-----
D|--------------------------
A|--------------------------
E|--------------------------

mar na jau kahi

E|--------------0-----------------
B|-----0-----2-----3--2--0--------
G|--2-----------------------2-----
D|--------------------------------
A|--------------------------------
E|--------------------------------

tujhko bhul jau kese 

E|--0--0--0--2--0--------------
B|-----------------3--2--0-----
G|-----------------------------
D|-----------------------------
A|-----------------------------
E|-----------------------------

maane na manau kese

E|--0--0--0--2--0--------------
B|-----------------3--2--0-----
G|-----------------------------
D|-----------------------------
A|-----------------------------
E|-----------------------------

tu bata ae..

E|--0-----------------
B|-----3--2--0-----0--
G|--------------2-----
D|--------------------
A|--------------------
E|--------------------

roke na ruke naina

E|--------------------------------
B|-----2--0-----------0-----------
G|--2--------2--1--------2--2-----
D|-----------------4--------------
A|--------------------------------
E|--------------------------------

teri ore inhe toh hai rahna

E|-----------------------------------
B|--------2--0-----------0-----------
G|--2--2--------2--1--------2--2-----
D|--------------------4--------------
A|-----------------------------------
E|-----------------------------------

roke na ruke naina

E|--------------------------------
B|-----2--0-----------0-----------
G|--2--------2--1--------2--2-----
D|-----------------4--------------
A|--------------------------------
E|--------------------------------

kaat'ta hoon lakhon lamhein

E|--------------------------------
B|--2--2--2--2--0--2--0-----------
G|-----------------------2--2-----
D|--------------------------------
A|--------------------------------
E|--------------------------------

kat'te nahi hai

E|--------------------------
B|--------------------------
G|--2-----2--2--2-----------
D|-----4--------------4-----
A|--------------------------
E|--------------------------

sayein teri yaadon ke

E|--------------------------
B|--2--2--2--2--0-----------
G|-----------------2--2-----
D|--------------------------
A|--------------------------
E|--------------------------

hat'te nahin hai

E|--------------------------
B|--------------------------
G|--2-----2--2--2-----------
D|-----4--------------4-----
A|--------------------------
E|--------------------------

sukh gaye hai ansu 

E|--0--0--0-----0-----0-----
B|-----------4-----4--------
G|--------------------------
D|--------------------------
A|--------------------------
E|--------------------------

teri judai ke

E|--------0-----0--0--0-----
B|-----2-----4--------------
G|--2-----------------------
D|--------------------------
A|--------------------------
E|--------------------------

palko se fir bhi baadal

E|-----------------------------
B|--2--2--2--0--2--0-----------
G|--------------------2--2-----
D|-----------------------------
A|-----------------------------
E|-----------------------------

chhaat'te nahi hai

E|-----------------------
B|-----------------------
G|--2-----2--2--2--------
D|-----4-----------4-----
A|-----------------------
E|-----------------------

khud ko mein hasaau kese

E|--0--0--0--2--0--------------
B|-----------------3--2--0-----
G|-----------------------------
D|-----------------------------
A|-----------------------------
E|-----------------------------

mane na manaau kese

E|--0--0--0--2--0--------------
B|-----------------3--2--0-----
G|-----------------------------
D|-----------------------------
A|-----------------------------
E|-----------------------------

tu bata..

E|--0--------------------
B|-----3--2--0-----0-----
G|--------------2--------
D|-----------------------
A|-----------------------
E|-----------------------

roke na ruke naina

E|--------------------------------
B|-----2--0-----------0-----------
G|--2--------2--1--------2--2-----
D|-----------------4--------------
A|--------------------------------
E|--------------------------------

tabs and chords, guitar tabs, music transcription, music technology, deep learning, music information retrieval, transcribe into tabs & chords, chordify, music renditions, songsterr, reverbnation, tabulature, bollywood chords, ultimate guitar, yousician, guitar lessons, acoustic guitar, electric guitar, guitar tuner, 911 tabs