Guitar Tabs for Rockin Around The Chrismtas Tree Solo

(/) Slide Up  (\) Slide Down  (h) Hammer On  (p) Pull Off  (b) Bend (r) Release (v) Vibrato (x) Muted

Tabs for Song : 
BPM : 200

Song lyrics here
D|--------3--4--6--
A|--4--6-----------
F|-----------------
C|-----------------
G|-----------------
D|-----------------


D|---4\0---4\0--4--4--4--8--6--4--3--3--------------
A|---4\0---4\0--4--4--4-----------------6--4--------
F|--------------------------------------------3-----
C|-----------------------------------------------5--
G|--------------------------------------------------
D|--------------------------------------------------

D|---5/8---6-----5/8---6-----5/8---6-------------3----4\0---4\0--
A|-----------8-----------8-----------8--6--4--6------4\0---4\0--
F|--------------------------------------------------------------
C|--------------------------------------------------------------
G|--------------------------------------------------------------
D|--------------------------------------------------------------

Song lyrics here
D|--
A|--
F|--
C|--
G|--
D|--

Paste any tab in acousterr's tab maker and we'll play it !!!
Now supports capo and sound effects for vibrato/pull-off/hammer/bends/mutes etc !!! Checkout help section





tabs and chords, guitar tabs, music transcription, music technology, deep learning, music information retrieval, transcribe into tabs & chords, chordify, music renditions, songsterr, reverbnation, tabulature, bollywood chords, ultimate guitar, yousician, guitar lessons, acoustic guitar, electric guitar, guitar tuner, 911 tabs