Guitar Tabs for Robot Solo

(/) Slide Up  (\) Slide Down  (h) Hammer On  (p) Pull Off  (b) Bend (r) Release (v) Vibrato

Tabs for Song : 

Song lyrics here


E|------------------------------------------------7--9--10----7--9--10----7--9--10p-9p-7h10p-9p-7h10p-9p-7h10p12p10b-9p7--12p10p8-----------12p10p8-----------------------12p10p8-----------12p10p8----------
B|---------------------------------------6--8--10----------10----------10----------------------------------------------------------12p10p8-----------12p10p8-----------------------12b10b8-----------12p10p8-
G|------------------------------5--7--9-----------------------------------------------------------------------------------------------------------------------10p-9p7----------------------------------------
D|---------------------5--7--9----------------------------------------------------------------------------------------------------------------------------------------10-------------------------------------
A|------------5--7--8----------------------------------------------------------------------------------------------------------------------------------------------------------------------------------------
E|---5--7--8-------------------------------------------------------------------------------------------------------------------------------------------------------------------------------------------------

E|--------12p10p8-----------12p10p8-------------------------------------------------------------------------------------------------------------------------------------------------------------------------------------------------------------------------------------------------
B|-----------------12p10p8-----------12p10p8----------------------------------------------------------------------------------------------------------------------------------------------------------------------------------------------------------------------------------------
G|---7/10-------------------------------------10p-9p7-----------------------------------11----------------8--11p8-----------------9--12p9-----------------10-13p10----------------11-14p11----------------12----------13----------15----------16----------------------------------18
D|---9/12----------------------------------------------10p-9p7--------------------------10-------------10----------10----------11----------11----------12----------12----------13----------13----------14----------15----------17----------18----------19-------20-------22---------
A|--------------------------------------------------------------10p-8p7-----------------9-----------9-----------------9-----10----------------10----11----------------11----12----------------12----13----------14----------16----------17----------18-------19-------21-------22---
E|-----------------------------------------------------------------------10p-8p-7/8-----8--------8-----------------------9-----------------------10----------------------11----------------------12----------13----------15----------16----------17-------18-------20-------21------

E|----------
B|----------
G|-----18-22
D|----------
A|----------
E|--22------

------

------------------



Song lyrics here


Add more lines by placing cursor below and adding notes
tabs and chords, guitar tabs, music transcription, music technology, deep learning, music information retrieval, transcribe into tabs & chords, chordify, music renditions, songsterr, reverbnation, tabulature, bollywood chords, ultimate guitar, yousician, guitar lessons, acoustic guitar, electric guitar, guitar tuner, 911 tabs