Guitar Tabs for Robben Ford - Blues In A#

(/) Slide Up  (\) Slide Down  (h) Hammer On  (p) Pull Off  (b) Bend (r) Release (v) Vibrato (x) Muted

Tabs for Song : 
BPM : 200

Song lyrics here 
E|-----6---------9b11----------6--------------------------------------------------------6-----------------------
B|--6------9/11-------------6------9p6-----------------------------------------------6------9p6-----------------
G|---------------------------------------8p6-----8------6b7---------5/6--5------8b10--------------8b10-8--8--5--
D|--------------------------------------------8-----8---------------6/7--6--------------------------------------
A|------------------------------------------------------------------5/6--5--------------------------------------
E|--------------------------------------------------------------------------------------------------------------

E|--11b13r11p9-----9--11-9b10----------------------6---------------------------------------------------------------
B|--------------11-------------------8--6-----6------9/11----11p9------9b10-------------11p9------9b10-------------
G|-----------------------------------8--7--------------------------10-------10----8--10-------10-------10----8--10-
D|-----------------------------------8--6--------------------------------------10-------------------------10-------
A|-----------------------------------------------------------------------------------------------------------------
E|-----------------------------------------------------------------------------------------------------------------

E|--------------------------------------------------------------------------------------------------------
B|---7b8--------------------------------------------------------------------------------------------------
G|---------8p6------8p6-----------6--------------6---------------------------------8/9--8-----6--8---6b7--
D|--------------8--------8---5h8--------8v----------8------8p6-----------------------------8--------------
A|-----------------------------------------------------8--------8--8---8\2--------------------------------
E|--------------------------------------------------------------------------------------------------------

E|-----6-------------6---------------------------------------------------6-------------------11b13-11------9-11-9---9b10-
B|--6------9p6--9v--------9p6-----------------------------------------6------9p6---9/11-11v------------11----------------
G|------------------------------8/9---8p6---8p6---------6b7--------------------------------------------------------------
D|-----------------------------------------------8-----------8-----6-----------------------------------------------------
A|--------------------------------------------------------------8--------------------------------------------------------
E|-----------------------------------------------------------------------------------------------------------------------

E|--------------------6-----------------8-----------------------------------------------------6-----------------------------------
B|-----------------6------9/11----9--11-----9b10-----------------7b8------------------------------9/11-11-9-----------------------
G|---9/-8p-6b7-----------------------------------10----8--10----------8-----6---8p6------6h7-----------------10-8--------------10-
D|--------------------------------------------------10-------------------8-----------8-----------------------------11-9--10/12----
A|--------------------------------------------------------------------------------------------------------------------------------
E|--------------------------------------------------------------------------------------------------------------------------------

E|--11b13r11p9--11--9b10-------11b13r11p9--11-----9h10----------------6-----6--------9--11-13--9h11-----9b10-
B|--------------------------------------------11-------11----9-----6-----6------9/11-------------------------
G|--------------------------------------------------------10-------------------------------------------------
D|-----------------------------------------------------------------------------------------------------------
A|-----------------------------------------------------------------------------------------------------------
E|-----------------------------------------------------------------------------------------------------------

E|---8b------6-----------------------------------------------------------------------------------------------------------------
B|---9b10--------9p6-----6------6b7--------------------------------------------------------------------------------------------
G|--------------------8-----6------------6p3-----------------3---------6b7-----8--6-----------------3------6p3--------------3--
D|--------------------------------------------3-----------3------6/8--------8--------8-----6-----3-----3--------3--------------
A|-----------------------------------------------6---4p5--------------------------------8--------------------------6---4h5-----
E|-----------------------------------------------------------------------------------------------------------------------------

E|-----------------------------------------------4-----4-----4--------------------------------------------------------------------
B|---4h-5p4-----4--------------------------------6---5p6-----6--------------4--6---------8b10r-8p6-----8---6h---------------------
G|-----------6------6p3-----3---6p3-----------------------6-----6--3-----3--5--6---------8b10r-8p6-----8---6h7--------------------
D|-----------------------3------------6/8-----------------------------5-----------------------------8-----------8--5--8-----5--6--
A|-----------------------------------------------------------------------------------------------------------------------8--------
E|--------------------------------------------------------------------------------------------------------------------------------

E|-----------6-----------------------------------------------------------6--------------------------------------------6------------9b10-
B|--------6------9p6--------------------------------------------------6------9/11-11-------------------------------6------9/11-11-------
G|---8b10--------------8b10--8p6---8p6---------8/9---8p6--8------6h7------------------------8/9---8p6--8------6h7-----------------------
D|-----------------------------------------8-----------------8--------------------------8-----------------8-----------------------------
A|--------------------------------------------------------------------------------------------------------------------------------------
E|--------------------------------------------------------------------------------------------------------------------------------------

E|-----15----------------------------------------11b13-11p9--11v---9---------------9b10-11p9-----------------------
B|--------14b15-------------14----------------------------------------11----11v---------------11-11p9-----------10v
G|--------------15----13-------12-15-12b13-------------------------------10----------------------------10-10-------
D|-----------------15----15----------------------------------------------------------------------------------------
A|-----------------------------------------------------------------------------------------------------------------
E|-----------------------------------------------------------------------------------------------------------------

---
E|-----
B|-----
G|-----
D|-----
A|--
E|--


E|----
B|-----
G|-----
D|-----
A|-----
E|-----

E|--
B|--
G|--
D|--
A|--
E|--

E|--
B|--
G|--
D|--
A|--
E|--

Song lyrics here 
E|--
B|--
G|--
D|--
A|--
E|--

Use manual mode to free up cursor. Paste any tab in acousterr tab maker and we'll play it !!!
tabs and chords, guitar tabs, music transcription, music technology, deep learning, music information retrieval, transcribe into tabs & chords, chordify, music renditions, songsterr, reverbnation, tabulature, bollywood chords, ultimate guitar, yousician, guitar lessons, acoustic guitar, electric guitar, guitar tuner, 911 tabs