Guitar Tabs for River Flows In You - Yurima

(/) Slide Up  (\) Slide Down  (h) Hammer On  (p) Pull Off  (b) Bend (r) Release (v) Vibrato (x) Muted

Tabs for Song : 

E|--------5--4--5--4--5--0--5-----------------------5--4--5--4--5--0--5--------------
B|-----2-----------------------3-----------------2-----------------------3-----------
G|--2-----------------------------------------2--------------------------------------
D|-----------------------------------------------------------------------------------
A|-----------------------------------------------------------------------------------
E|-----------------------------------------------------------------------------------

E|--------5--4--5--4--5--0--5-----------------0--------------------------------------------------0--------------------
B|-----2--------------------------3-----2--3-----2--0-----------------------------0--2-----2--3--------3--2--0--------
G|--2--------------------------2-----2--------------------------2--1--2--------2--------------------------------------
D|--------------------------------------------------------------------------2-----------------------------------------
A|--------------------------------------------------------------------------------------------------------------------
E|--------------------------------------------------------------------------------------------------------------------

E|--------5--4--5--4--5--0--5-----------------0--9--7--------9--7--5--4--5-----------------------0--------------------
B|-----2--------------------------3-----2--3--------------------------------------0--2-----2--3--------3--2--0--------
G|--2--------------------------2-----2-----------------------------------------2--------------------------------------
D|--------------------------------------------------------------------------------------------------------------------
A|--------------------------------------------------------------------------------------------------------------------
E|--------------------------------------------------------------------------------------------------------------------

E|--5--7--5--4--5-----0-----5--7--5--4--5-----0-----5--7--5--4--5--7--9--10-12-9--7--5--4-----
B|-----------------------------------------------------------------------------------------0--
G|-----------------2-----2-----------------2-----2--------------------------------------------
D|--------------------------------------------------------------------------------------------
A|--------------------------------------------------------------------------------------------
E|--------------------------------------------------------------------------------------------

E|--5--7--5--4--5-----0-----5--7--5--4--5-----0-----5--7--5--4--5--7--9--10-12-9--7--5--4-----
B|-----------------------------------------------------------------------------------------0--
G|-----------------2-----2-----------------2-----2--------------------------------------------
D|--------------------------------------------------------------------------------------------
A|--------------------------------------------------------------------------------------------
E|--------------------------------------------------------------------------------------------

E|--5--7--5--4--5-----0-----5--7--5--4--5-----0-----5--7--5--4--5--7--9--10-12-9--7--5--4-----
B|-----------------------------------------------------------------------------------------0--
G|-----------------2-----2-----------------2-----2--------------------------------------------
D|--------------------------------------------------------------------------------------------
A|--------------------------------------------------------------------------------------------
E|--------------------------------------------------------------------------------------------

E|--5--7--5--4--5-----0-----5--7--5--4--5-----0-----5--7--5--4--5--7--9--10-12-9--7--5--4--------------------------
B|-----------------------------------------------------------------------------------------0-----------------------
G|-----------------2-----2-----------------2-----2-----------------------------------------------1-----------------
D|-----------------------------------------------------------------------------------------------------2-----------
A|-----------------------------------------------------------------------------------------------------------------
E|-----------------------------------------------------------------------------------------------------------------

E|--------5--4--5--4--5--0--5-----------0-----------------------------------------0-----------------------
B|-----2-----------------------3--2--3-----2--0--------------------0--2-----2--3--------3--2--0-----------
G|--2-----------------------------------------------2--1--2-----2-----------------------------------------
D|--------------------------------------------------------------------------------------------------------
A|--------------------------------------------------------------------------------------------------------
E|--------------------------------------------------------------------------------------------------------

E|--------5--4--5--4--5--0--5-----------0--9--7-----------------------------------0-----------------------
B|-----2-----------------------3--2--3-----------------------------0--2-----2--3--------3--2--0-----------
G|--2-----------------------------------------------2--1--2-----2--------------------------------------2--
D|--------------------------------------------------------------------------------------------------------
A|--------------------------------------------------------------------------------------------------------
E|--------------------------------------------------------------------------------------------------------



Paste any tab in acousterr's tab maker and we'll play it !!!
Now supports capo and sound effects for vibrato/pull-off/hammer/bends/mutes etc !!! Checkout help section
tabs and chords, guitar tabs, music transcription, music technology, deep learning, music information retrieval, transcribe into tabs & chords, chordify, music renditions, songsterr, reverbnation, tabulature, bollywood chords, ultimate guitar, yousician, guitar lessons, acoustic guitar, electric guitar, guitar tuner, 911 tabs