Guitar Tabs for River Flows In You - Yiruma Intro Tabs

(/) Slide Up  (\) Slide Down  (h) Hammer On  (p) Pull Off  (b) Bend (r) Release (v) Vibrato (x) Muted

Tabs for Song : River Flows in You Intro Tabs

steve 1 
E|--------3--2--3--2--3-----3-----
B|-----0--------0--------3-----1--
G|--0--------0-----0-----0--------
D|--------2-----------------------
A|--------------------3-----------
E|--------------------------------

steve 2
E|--------3--2--3--------2--3-----------3-----------
B|-----0-----------------------------3-----------1--
G|--0--------0--------0-----------0-----------0-----
D|--------2--------2--------------------------------
A|-----------------------------3-----------3--------
E|--------------------------------------------------



Now supports capo and sound effects for vibrato/pull-off/hammer/bends/mutes etc !!! Checkout help section
tabs and chords, guitar tabs, music contests, music covers, songsterr, reverbnation, renditions, tabulature, bollywood chords, ultimate guitar, yousician, guitar lessons, torrins, fender, gibson, acoustic guitar, electric guitar, youtube covers, gootar, guitar tuner, A-Z tabs, 911 tabs