Guitar Tabs for River Flows In You By Yiruma

Tabs for Song : 
E|-----------5--4--5--4--5--0--5--------------------5--4--5--4--5--0--5-----------------------5--4--5--4--5--0--5--------
B|--------2-----------------------3--------------2-----------------------3-----------------2-----------------------------
G|-----2--------------------------------------2-----------------------------------------2-----------------------------2--
D|-----------------------------------------------------------------------------------------------------------------------
A|-----------------------------------------------------------------------------------------------------------------------
E|-----------------------------------------------------------------------------------------------------------------------

E|-----------------0--------------------------------------------0-----------------------5--4--5--4--5--0--5--------------
B|--3--------2--3-----2--0-----------------------0--2-----2--3--------3--2--0--------2--------------------------3-----2--
G|-----2-----------------------2--1--2--------2-----------------------------------2--------------------------2-----2-----
D|-----------------------------------------2-----------------------------------------------------------------------------
A|-----------------------------------------------------------------------------------------------------------------------
E|-----------------------------------------------------------------------------------------------------------------------

E|-----0--9--7-----9--7--5--4--5-----------------------0--------------5--7--5--4--5-----0-----5--7--5--4--5-----0-----5--
B|--3-----------------------------------0--2-----2--3--------3--2--0-----------------------------------------------------
G|-----------------------------------2-----------------------------------------------2-----2-----------------2-----2-----
D|-----------------------------------------------------------------------------------------------------------------------
A|-----------------------------------------------------------------------------------------------------------------------
E|-----------------------------------------------------------------------------------------------------------------------

E|--7--5--4--5--7--9--10-12-9--7--5--4-----5--7--5--4--5-----0-----5--7--5--4--5-----0-----5--7--5--4--5--7--9--10-12-9--
B|--------------------------------------0--------------------------------------------------------------------------------
G|--------------------------------------------------------2-----2-----------------2-----2--------------------------------
D|-----------------------------------------------------------------------------------------------------------------------
A|-----------------------------------------------------------------------------------------------------------------------
E|-----------------------------------------------------------------------------------------------------------------------

E|--7--5--4-----5--7--5--4--5-----0-----5--7--5--4--5-----0-----5--7--5--4--5--7--9--10-12-9--7--5--4-----5--7--5--4--5--
B|-----------0-----------------------------------------------------------------------------------------0-----------------
G|-----------------------------2-----2-----------------2-----2-----------------------------------------------------------
D|-----------------------------------------------------------------------------------------------------------------------
A|-----------------------------------------------------------------------------------------------------------------------
E|-----------------------------------------------------------------------------------------------------------------------

E|-----0-----5--7--5--4--5-----0-----5--7--5--4--5--7--9--10-12-9--7--5--4-----------------------------5--4--5--4--5--0--
B|--------------------------------------------------------------------------0-----------------------2--------------------
G|--2-----2-----------------2-----2--------------------------------------------1-----------------2-----------------------
D|--------------------------------------------------------------------------------2--------------------------------------
A|-----------------------------------------------------------------------------------------------------------------------
E|-----------------------------------------------------------------------------------------------------------------------

E|--5-----------0--------------------------------------0-----------------------5--4--5--4--5--0--5-----------0--9--7--
B|-----3--2--3-----2--0-----------------0--2-----2--3--------3--2--0--------2-----------------------3--2--3-----------
G|-----------------------2--1--2-----2-----------------------------------2--------------------------------------------
D|--------------------------------------------------------------------------------------------------------------------
A|--------------------------------------------------------------------------------------------------------------------
E|--------------------------------------------------------------------------------------------------------------------

E|-----------------------------------0--------------------
B|--------------------0--2-----2--3--------3--2--0--------
G|-----2--1--2-----2-----------------------------------2--
D|--------------------------------------------------------
A|--------------------------------------------------------
E|--------------------------------------------------------

tabs and chords, guitar tabs, music transcription, music technology, deep learning, music information retrieval, transcribe into tabs & chords, chordify, music renditions, songsterr, reverbnation, tabulature, bollywood chords, ultimate guitar, yousician, guitar lessons, acoustic guitar, electric guitar, guitar tuner, 911 tabs